Song name
# A B C D E F G H I J K L M N O P Q R S T U V W X Y Z

Patent Pending - Demo For Dana tab

im sure this is right.

e---------------------------------------------------------|
B---------------------------------------------------------|
G---------------------------------------------------------|
D---------------------------------------------------------|
A--------------7-----7-----7-----7-----7-----7-----7------|
E--4/5-5-0-0-0---0-0---0-0---0-0---0-0---0-0---0-0--------|

e----------------------------|
B----------------------------|
G----------------------------|
D----------------------------| repeat 8x
A-----7-----7-----7-----7----|
E-0-0---4-4---5-5---6-6------|
Tap to rate this tab
 
# A B C D E F G H I J K L M N O P Q R S T U V W X Y Z