Song name
# A B C D E F G H I J K L M N O P Q R S T U V W X Y Z

Patent Pending - Fat Chance tab

Intro
e|-------------------------------------|-----|-----------------|
B|-------------------------------------|-----|-----------------|
G|------9---------------11-------------|-----|-----------------|
D|----6---6-----7-----8----8-----9-----|--2X-|-9----9--999999--|
A|--7---------4---4-9----------6---6---|-----|-9-------999999--|
E|----------5----------------7---------|-----|-7--7----777777--|
                                               end on



verse/chorus
e|---------------------|
B|---------------------|
G|--9-----11-----------|
D|--9--7--11--9--------|
A|--7--7--9---9--------|
E|-----5------7--------|





Tap to rate this tab
# A B C D E F G H I J K L M N O P Q R S T U V W X Y Z