Song name
# A B C D E F G H I J K L M N O P Q R S T U V W X Y Z

Pato - Nighthawks tab

Nighthawks
Pato
Music For Early Birds & Nighthawks (2006)

Clean guitar, but still with a dry and dirty tone ;)

Intro/chorus:

e|-----------|----------6---6-|-7-7--------------|
B|-----------|:---------7---6-|-7-7--------------|
G|-----------|--11---x--8---8-|-6-6---x----------|
D|-----------|--11---x--8---8-|-9-9---x--4-------|
A|--------/--|:-9----x--6---6-|-9-9---x--4---4/--|
E|--------/--|--9----x--6---6-|-7-7---x--2---2/--|

e|---------------7-7-|-7---7--7--------|
B|---------------7-7-|-7h9-7--7-------:|
G|-----x--8---x--9-9-|-9---9--6--------|
D|-6---x--8---x--9-9-|-9---9--9--------|
A|-6---x--6---x--7-7-|-7---7--9----/--:|
E|-4---x--6---x--7-7-|-7---7--7----/---|

Verse:

  >----------------------Palm muted----------------------------<
e|------------------|------------------|--------------------------|
B|:-----------------|------------------|--------------------------|
G|------------------|------------------|--------------------------|
D|------------------|------------------|--------------------------|
A|:-9-9-9-9-9-9-9-9-|-9-9-9-9-9-9-9-9/-|-13-13-13-13-13-13-13-13/-|
E|--7-7-7-7-7-7-7-7-|-7-7-7-7-7-7-7-7/-|-11-11-11-11-11-11-11-11/-|

  >--Palm muted--<
e|--------------------|
B|-------------------:|
G|--------------------|
D|--------------------|
A|-14-14-14-9-9-9-/--:|
E|-12-12-12-7-7-7-/---|
Tap to rate this tab
 
# A B C D E F G H I J K L M N O P Q R S T U V W X Y Z