Song name
# A B C D E F G H I J K L M N O P Q R S T U V W X Y Z

Patrice - How Do You Call It tab

Name: Hanchao Xu
Email: hanchao.xu@web.de
Artist: Patrice
Song: How do you call it(acoustic)


Patrice - How do you call(acoustic)

Patrice tabs are so rare in the web, so I'm gonna post this one.
This ist 100% the correct version(Patrice plays it like that).
Just play it through the song.


e|-----------------------------------------------|
b|-----------------------------------------------|
g|-----9---8---8---6-----------------------------|
d|-----------------------------------------------|
a|-4--10---9---9---7-----------------------------|
e|-5---------------------------------------------|


At the end he play it as chords:


e|-----8---7---7---5-----------------------------|
b|-----8---7---7---5-----------------------------|
g|-----9---8---8---6-----------------------------|
d|-5---8---7---7---5-----------------------------|
a|-4--10---9---9---7-----------------------------|
e|-5---8---8---7---5-----------------------------|

The rhythm is very hard to tab, so try it out yourself.

enjoy!!
Tap to rate this tab
 
# A B C D E F G H I J K L M N O P Q R S T U V W X Y Z