Song name
# A B C D E F G H I J K L M N O P Q R S T U V W X Y Z

Patricio Rey - Cruz Diablo tab

Help us improve GuitareTab! Take a short survey!
. = Palm Mute
h = hammer on
p = pull off
/ = slide
v = vibrato
b = bend


Em G #F F (rasgueo suave)


E|-----------------------------------------|--------------------------------------|
B|-----------------------------------------|--------------------------------------|
G|--2--------------------------------------|-2----------------------------------2-|
D|--2----------5--------4--------3---------|-2--------5-------4--------3--------2-|
A|--0----3p2h3-5-3p2h3--4--3p2h3-3--3p2----|-0--3p2h3-5-3p2h3-4--3p2h3-3--3p2---0-|
E|-------------3--------2--------1------3--|----------3-------2--------1------3---|

Mir sus manos ms tarde que temprano
Y el precipicio donde su amor deshizo
Pens en su nombre en la mujer y el hombre
En la piel curtida y un Sol que ya no abriga
E|-----------------------------------------|--------------------------------------|
B|-----------------------------------------|--------------------------------------|
G|--2--------------------------------------|-2----------------------------------2-|
D|--2----------5--------4--------3---------|-2--------5-------4--------3--------2-|
A|--0----3p2h3-5-3p2h3--4--3p2h3-3--3p2----|-0--3p2h3-5-3p2h3-4--3p2h3-3--3p2---0-|
E|-------------3--------2--------1------3--|----------3-------2--------1------3---|

Ves ves la carne afloja alguna vez
Ves cruz diablo siga yo despus

G|-9---9h10p9--------------------------------------|
D|---------------------10-9-12-10-9----------------|
A|----------------12-------------------12--/19-12--|

Miro sus fotos prendi un cigarro
Y qued dormido en nubes de humo hundido
So con nios su barrio su madre
Con sus hermanos con su perro y su padre

E|-----------------------------------------|--------------------------------------|
B|-----------------------------------------|--------------------------------------|
G|--2--------------------------------------|-2----------------------------------2-|
D|--2----------5--------4--------3---------|-2--------5-------4--------3--------2-|
A|--0----3p2h3-5-3p2h3--4--3p2h3-3--3p2----|-0--3p2h3-5-3p2h3-4--3p2h3-3--3p2---0-|
E|-------------3--------2--------1------3--|----------3-------2--------1------3---|
Ves ves todo nos falta alguna vez
Vez cruz diablo cruz diablo

E|-------------------------------------------------|
B|----1-----1-----1-----1-----0------0----0-----0--|
G|----2-----2-----2-----2-----1------1----1-----1--|
D|----2-----2-----2-----2-----2------2----2-----2--|
A|-0------0----0-----0-----------------------------|
E|---------------------------0------0-----0----0---|

Vos no perdiste de golpe
Ni tu suerte se hizo escombros con un mazazo mortal
E|12-12-12-11-12-13-12-11-12-13-12-10-8-7-8-7--7-------------------------------|
B|-------------------------------------------10-10-12-13-15-13-12-9-10-12-10-9-|

E|-15-13-13-12---12-13-12------------------|
B|-------------15---------15-13-12---------|

Yo te vi perdiendo lento, lento, siempre lento
Como las sombras del atardecer
Que se van lento
As te veo, as te vi, as te vieron y as te ven
Perdiendo lento, siempre lento.
Cruz diablo

	Solo 1


E|-11b-11b-11b-11bv-9----9-11bvp9----9-------9-11b-9-11b-15-12-|
B|--------------------11----------11---11-11-------------------|

E|------------10--------------------|------------10--------------------|
B|---10-12-13----13-13-12-10----10--|---10-12-13----13-13-12-10----10--|
G|-9-------------------------12-----|-9-------------------------12-----|

Un nuevo da la calma le ofreca
El mate amargo un pucho y la partida


B|-1--1--1--
G|-2--2--2--	aumentando el volumen
D|-2--2--2--
A|-0--0--0--
Cont el dinero pag el boleto obrero
Y se fue al laburo un viejo pasajero

E|-----------------------------------------|--------------------------------------|
B|-----------------------------------------|--------------------------------------|
G|--2--------------------------------------|-2----------------------------------2-|
D|--2----------5--------4--------3---------|-2--------5-------4--------3--------2-|
A|--0----3p2h3-5-3p2h3--4--3p2h3-3--3p2----|-0--3p2h3-5-3p2h3-4--3p2h3-3--3p2---0-|
E|-------------3--------2--------1------3--|----------3-------2--------1------3---|
Ves ves la carne afloja alguna vez
Ves todo nos falta alguna vez
Ves pero estas cosas no se ven
Ves cruz diablo siga yo despus

               Solo2
E|-11b-15-11b----11b-15-11b--------------------------------------------------------|
B|------------14------------14-11-11-14-11-16-11-14-16-11-14-16-11-14-16-11-14-16--|

E|------------10--------------------|------------10--------------------|
B|---10-12-13----13-13-12-10----10--|---10-12-13----13-13-12-10----10--|
G|-9-------------------------12-----|-9-------------------------12-----|

E|------------10--------------------|------------10--------------------|
B|---10-12-13----13-13-12-10----10--|---10-12-13----13-13-12-10----10--|
G|-9-------------------------12-----|-9-------------------------12-----|
E|------------10--------------------|------------10--------------------|
B|---10-12-13----13-13-12-10----10--|---10-12-13----13-----------------|
G|-9-------------------------12-----|-9--------------------------------|

Related for Cruz Diablo tab