Guitaretab - guitar tabs
Song name
# A B C D E F G H I J K L M N O P Q R S T U V W X Y Z

Patrick Ohearn - Beyond This Moment tab

-------------------------------------------------------------------------------
			     Beyond This Moment - Patrick O'Hearn
-------------------------------------------------------------------------------
Tabbed by: Ryan Valles
Email: cyanuke@yahoo.com

A very simple song, but nevertheless I couldn't find tabs for it 
anywhere, so here it is.

This is pretty much the whole song, just repeat all this fairly quickly
for four minutes and forty seconds.

Tuning: Normal Tuning
                                                                       
E||----------------------|---------------------|----------------------|
B||----------------------|---------------------|----------------------|
G||------------3---------|------------3--------|------------3---------|
D||-------1---------1----|-------1-------------|-------1---------1----|
A||----------------------|---------------------|----------------------|
E||--3-------------------|--3------------------|--3-------------------|


                                                                     
----------------------|----------------------|----------------------|
----------------------|----------------------|----------------------|
------------3---------|------------3---------|------------3---------|
-------1---------1----|-------1---------1----|-------1---------1----|
----------------------|----------------------|----------------------|
--3-------------------|--3-------------------|--3-------------------|

[ Tab from: http://www.guitaretab.com/p/patrick-ohearn/53292.html ]
                                                                     
----------------------|----------------------|----------------------|
----------------------|----------------------|----------------------|
------------3---------|------------3---------|------------3---------|
-------1---------1----|-------1---------1----|-------0---------0----|
----------------------|----------------------|----------------------|
--3-------------------|--3-------------------|--3-------------------|


                                                                     
----------------------|----------------------|----------------------|
----------------------|----------------------|----------------------|
------------3---------|------------3---------|------------3---------|
-------0---------0----|-------0---------0----|-------0---------0----|
----------------------|----------------------|----------------------|
--3-------------------|--3-------------------|--3-------------------|


                                                                     
----------------------|----------------------|----------------------|
----------------------|----------------------|----------------------|
------------3---------|------------3---------|------------2---------|
-------0---------0----|-------0---------0----|-------0---------0----|
----------------------|----------------------|----------------------|
--1-------------------|--1-------------------|--1-------------------|


                        
----------------------||
----------------------||
------------2---------||
-------0---------0----||
----------------------||
--1-------------------||
×
Beyond This Moment