Song name
# A B C D E F G H I J K L M N O P Q R S T U V W X Y Z

Patrick Stump - Spotlightoh Nostalgia tab

Patrick Stump
Spotlight(oh nostalgia)
Standard
Come In at around 4 or 5 seconds into it if your gonna play the piano part
Piano part
{------------------------|------------------------|------------------------}
{------------------------|------------------------|------------------------}
[o----------------------o|o----------------------o|o----------------------o]
[------------------------|------------------------|------------------------]
[o----------------------o|o----------------------o|o---3-----3-----3-----3o]
{-3--5--3--5--3--5--3--5-|-3--3--3--3--3--3--3--3-|-3-----3-----3-----3----]
  1 and 2 and 3 and 4 and  1 and 2 and 3 and 4 and  1 and 2 and 3 and 4 and

[------------------------]
[------------------------]
[o----------------------o]
[------------------------]
[o----------------------o]
[-3--1--3--1--3--1--3--1-] Keep repeating the four measures
  1 and 2 and 3 and 4 and

Anyway around 0:44 into it it changes and you play the piano part muted
Guitar
Chorus
[--------------------------------------------------------------------------]
[--------------------------------------------------------------------------]
[------------------2222222222222222------------------5555555555555555------]
[-3333333333333333-2222222222222222-5555555555555555-5555555555555555------]
[-3333333333333333-0000000000000000-5555555555555555-3333333333333333------]
[-1111111111111111------------------3333333333333333-----------------------]

Verse 2
Piano
[------------------------]
[-----------------------]
[o----------------------o]
[------------------------]
[o----------------------o]
[-3--1--3--1--3--1--3--1-]

{------------------------|------------------------|------------------------}
{------------------------|------------------------|------------------------}
[o----------------------o|o----------------------o|o----------------------o]
[------------------------|------------------------|------------------------]
[o----------------------o|o----------------------o|o---3-----3-----3----3-o]
{-3--5--3--5--3--5--3--5-|-3--3--3--3--3--3--3--3-|-3-----3-----3-----3----]
 
Repeat as many times as needed

Repeat chorus
Guitar
Bridge
[--------------------------------------------------------------------------]
[-----------------6-6-6-6-6-6-6-6-5-5-5-5-5-5-5-5-5-5-5-5-5-5-5-3----------]
[-5-5-5-5-5-5-5-5----------------------------------------------------------}
[--------------------------------------------------------------------------]
[-3-3-3-3-3-3-3-3-3-3-3-3-3-3-3-3-3-3-3-3-3-3-3-3-3-3-3-3-3-3-3-3----------]
[--------------------------------------------------------------------------]

Repeat chorus

outro
[--------------------------]
[--------------------------]
[------5-4-2-0-------------]
[--------------------------]
[--------------------------]
[--------------------------]
Tap to rate this tab
 
# A B C D E F G H I J K L M N O P Q R S T U V W X Y Z