Song name
# A B C D E F G H I J K L M N O P Q R S T U V W X Y Z

Patrick Stump - Allie tab

			     Allie - Patrick Stump

 First tab. This song has only been played live so far but nonetheless a great song.


Tuning: DADGBE
     Intro
e|-------------------------------------------------------------------------|
B|-------------------------------------------------------------------------|
G|-----------------5-7-8-------------------5-7-8---------------------------|
D|-6--10-8-10-5-3--5-7-8-8-6--10-8-10-5-3--5-7-8-8-6\----------------------|
A|-6--10-8-10-5-3--3-5-6-8-6--10-8-10-5-3--3-5-6-8-6\----------------------|
D|-6--10-8-10-5-3--------8-6--10-8-10-5-3--------8-6\----------------------|

Verse (Guitar 1)    Violin for Guitar, Finger pick it
e|---------------------------------------------------------|
B|---------------------------------------------------------|
G|-8--8--8--8--8--8--8--8--8--7-7-7-8--8--8--8--8----------|
D|-10-10-10-10-10-10-10-10-10-8-8-8-10-10-10-10-10---------|
A|---------------------------------------------------------|
E|---------------------------------------------------------|
 (Guitar 2)
e|-----------------------------------------------|
B|-----------------------------------------------|
G|-----------------------------------------------|
D|--6~-5~-10~-12-13--6~-5~-----------------------|
A|--6~-5~-10~-12-13--6~-5~-----------------------|
E|--6~-5~-10~-12-13--6~-5~---------------------- |

Pre-Chorus
e|------------------------------------------------------------------|
B|------------------------------------------------------------------|
G|------------------------------------------------------------------|
D|-----------------------3-8----------------------------------------|
A|-----------------------3-8----------------------------------------|
E|-----------------------3-8----------------------------------------|
 "I'm not broken hearted.......I'm just kinda pissed off."

The Chorus uses the same chords and notes as the 2nd guitar does in the verse. I will 
finish the tab as soon as I get a better look at the notes. :)

************************************

| /   slide up
| \   slide down
| h   hammer-on
| p   pull-off
| ~   vibrato
| +   harmonic
| x   Mute note
| b   Bend
| pb  Pre-bend
| br  Bend release
| pbr Pre-bend release
| brb Bend release bend

************************************
Tap to rate this tab
# A B C D E F G H I J K L M N O P Q R S T U V W X Y Z