Song name
# A B C D E F G H I J K L M N O P Q R S T U V W X Y Z

Patrick Stump - As Long As I Know Im Getting Paid tab

-----------------------------------------------------
 As long as I'm Getting Paid (live) - Patrick Stump
-----------------------------------------------------
Tabbed by: smallispowerful
Email: nice try suckers.

Tuning:EADGBe

Patrick stump released a live version for Rolling 
Stone, so I was able to slow it down and get the solo.
It's the same for both the live and Truant Wave EP 
version. I will tab the complete version soon.

e|------------------------|--------------------------|
B|------------------------|--------------------------|
G|------------------------|--------------------------|
D|-7-7-7p5---5----------5-|-7-7-7h5----------5-------|
A|---------7---7-7--------|--------------5h7---------|
E|------------------------|----------5h7-------------|

e|------------------------|---------|-(In triplets)--|
B|------------------------|---------|--7-4-----------|
G|-7-7-7p5---5------[7]/9-|-5-7-5-7-|------7--5------|
D|---------7---7-7--------|---------|-----------7-5--|
A|------------------------|---------|----------------|
E|------------------------|---------|----------------|

repeat 2x

************************************

| /   slide up
| \   slide down
| h   hammer-on
| p   pull-off
| x   Mute note

************************************
Tap to rate this tab
 
# A B C D E F G H I J K L M N O P Q R S T U V W X Y Z