Song name
# A B C D E F G H I J K L M N O P Q R S T U V W X Y Z

Patrick Stump - This City Acoustic tab

-------------------------------------------------------------------------------
		     THIS CITY [ACOUSTIC] - Patrick Stump - SOUL PUNK
-------------------------------------------------------------------------------

Tuning: EADGBE

[Intro]
e|--0---0---0---0---0---0---0---0----------------------------------4---------|
B|----------------------------------4---4---4---4----5---5---5---7-----------|
G|----2---2---2---2---1---1---1---1---4---4---4---4----6---6---6-------------|
D|---------------------------------------------------------------------------| x2
A|---------------------------------------------------------------------------|
E|---------------------------------------------------------------------------|

[Intro Chorus]
e|--0---0---0---0---0---0---0---0----------------------------------4---------|
B|----------------------------------4---4---4---4----5---5---5---7-----------|
G|----2---2---2---2---1---1---1---1---4---4---4---4----6---6---6-------------| x2
D|---------------------------------------------------------------------------|
A|---------------------------------------------------------------------------|
E|---------------------------------------------------------------------------|

[Verse]
e|---------------------------------------------------------------------------|
B|---------------------------------------------------------------------------|
G|---------------9-------------x----------x----------------------------------|
D|---------------9--9--11--11--x--11--11--x--11--11--------------------------| x4
A|---------------x-------------x----------x----------------------------------|
E|---------------9-------------x----------x----------------------------------|
   From every corner..


e|---------------------------------------------------------------------------|
B|---------------------------------------------------------------------------|
G|------------6-----6---4--2----2--4--4--4-4--4-4---4--4---------------------|
D|------------6-----6---4--2----2--4--4--------------------------------------| x2
A|------------x-----x---x--x----x--x--2-----------2--------------------------|
E|------------5-----5---4--2----2--4-----------------------------------------|
   From the problems..  


[Chorus]
e|--0-0-0-0----0-0-0-0----0-0-0-0----0-0-0-0---------------------------------|
B|--2-2-2-2----0-0-0-0----0-0-0-0----0-0-0-0---------------------------------|
G|--2-2-2-2----1-1-1-1----4-4-4-4----4-4-4-4---------------------------------| x4
D|--2-2-2-2----2-2-2-2----4-4-4-4----2-2-2-2---------------------------------|
A|--0-0-0-0----2-2-2-2----2-2-2-2----4-4-4-4---------------------------------|
E|-------------0-0-0-0-------------------------------------------------------|


[Verse 2]
e|---------------------------------------------------------------------------|
B|---------------------------------------------------------------------------|
G|---------------9-------------x----------x----------------------------------|
D|---------------9--9--11--11--x--11--11--x--11--11--------------------------| x4
A|---------------x-------------x----------x----------------------------------|
E|---------------9-------------x----------x----------------------------------|
   From every high rise..

e|---------------------------------------------------------------------------|
B|---------------------------------------------------------------------------|
G|-------------6-----6---4--2----2--4--4--4-4--4-4---4--4--------------------|
D|-------------6-----6---4--2----2--4--4-------------------------------------| x2
A|-------------x-----x---x--x----x--x--2-----------2-------------------------|
E|-------------5-----5---4--2----2--4----------------------------------------|
   My city and I..


[Chorus]
e|--0-0-0-0----0-0-0-0----0-0-0-0----0-0-0-0---------------------------------|
B|--2-2-2-2----0-0-0-0----0-0-0-0----0-0-0-0---------------------------------|
G|--2-2-2-2----1-1-1-1----4-4-4-4----4-4-4-4---------------------------------| x4
D|--2-2-2-2----2-2-2-2----4-4-4-4----2-2-2-2---------------------------------|
A|--0-0-0-0----2-2-2-2----2-2-2-2----4-4-4-4---------------------------------|
E|-------------0-0-0-0-------------------------------------------------------|



[Middle 8]
e|--0---0---0---0---0---0---0---0----------------------------------4---------|
B|----------------------------------4---4---4---4----5---5---5---7-----------|
G|----2---2---2---2---1---1---1---1---4---4---4---4----6---6---6-------------| x2
D|---------------------------------------------------------------------------| 
A|---------------------------------------------------------------------------|
E|---------------------------------------------------------------------------|
   You can take..

[Chorus - Key Change]
e|-----------1-1-1-1--0-0-0-0--1-1-1-1---------------------------------------|
B|-----------1-1-1-1--1-1-1-1--3-3-3-3---------------------------------------|
G|--3-3-3-3--2-2-2-2--0-0-0-0--2-2-2-2---------------------------------------| x4
D|--3-3-3-3--3-3-3-3--2-2-2-2--0-0-0-0---------------------------------------|
A|--1-1-1-1--3-3-3-3--3-3-3-3------------------------------------------------|
E|-----------1-1-1-1---------------------------------------------------------|
Tap to rate this tab
 
# A B C D E F G H I J K L M N O P Q R S T U V W X Y Z