Song name
# A B C D E F G H I J K L M N O P Q R S T U V W X Y Z

Patrick Stump - Everybody Wants Somebody Acoustic tab

e|-----------------------------------|
B|-----------------------------------|
G|-------------------------------9---| 
D|---11-11b-9-11----11-11b-9-9h11----|  X4 Intro
A|-----------------------------------|
E|-----------------------------------|


e|----------------|
B|----------------|
G|--6---8---9---9-|
D|--7---9---9---9-| Strum these choords for the verses.
A|--7---7---x---7-|
E|--5---7---9-----|


CHORUS

e|-------------------------|
B|-------------------------|
G|--------------9-9---9-9--|
D|--7-7---9-9---9-9---9-9--|
A|--7-7---7-7---x-x---7-7--|
E|--5-5---7-7---9-9--------|
Tap to rate this tab
# A B C D E F G H I J K L M N O P Q R S T U V W X Y Z