Song name
# A B C D E F G H I J K L M N O P Q R S T U V W X Y Z

Patrick Swayze - Shes Like The Wind tab

                               SHE'S LIKE THE WIND
                          As recorded by Patrick Swayze
                 (From the 1987 Album DIRTY DANCING SOUNDTRACK)

Arranged by Corey Hunter
Transcribed by Corey Hunter

     Am7                  Bm7                  D5                   G5
 x 0 2 0 1 0          x 2 4 2 3 2          x x 0 2 3 x          3 x 0 0 3 x

    D5/F#                 Em                    C                  Am7/B
 2 x 0 2 3 x          0 2 2 0 0 0          x 3 2 0 1 0          x 2 x 0 1 x

   Intro
    Slow Ballad Q=63
   4/4
    Gtr I
    S S S S +S  S +E  +S  S S S +S  S +E
||--3p0---2-(2)-3-(3)-(3)-0---2-(2)-3-(3)-|
||o-----0-------------------0-------------|
||----------------------------------------|
||----------------------------------------|
||o-3-------------------------------------|
||----------------------------------------|
    W


  S S S S +S  S +E  +S  S S S +S  S +E
|---0---2-(2)-3-(3)-(3)-0---2-(2)-3-(3)--||
|-----0-------------------0-------------o||
|----------------------------------------||
|-2--------------------------------------||
|---------------------------------------o||
|----------------------------------------||
  W


   Verse
    S S S S +S  S +E  +S  S S S +S  S +E
||--3p0---2-(2)-3-(3)-(3)-0---2-(2)-3-(3)-|
||o-----0-------------------0-------------|
||----------------------------------------|
||----------------------------------------|
||o-3-------------------------------------|
||----------------------------------------|
    W


  S S S S +S  S +E  +S  S S S +S  S +E   4x
|---0---2-(2)-3-(3)-(3)-0---2-(2)-3-(3)--||
|-----0-------------------0-------------o||
|----------------------------------------||
|-2--------------------------------------||
|---------------------------------------o||
|----------------------------------------||
  W


 Pre-Chorus
  Am7                  Bm7                  Am7                  Bm7   D5
   H    S S S S +Q      H    S S S S +Q      H    S S S S +Q      H    H
|-^0----3p0----------|-^2----5p2----------|-^0----3p0----------|-^2---------||
|-^1--------1--------|-^3--------3--------|-^1--------1--------|-^3----3----||
|-^0----------0-(0)--|-^2----------2-(2)--|-^0----------0-(0)--|-^2----2----||
|-^2-----------------|-^4-----------------|-^2-----------------|-^4----0----||
|-^0-----------------|-^2-----------------|-^0-----------------|-^2---------||
|--------------------|--------------------|--------------------|------------||


 Chorus 1
  G5 D5/Em D5   C
  Q  Q  Q  Q    W
|-------0-----|-0----|
|-3--3--0--3--|-1----|
|-0--2--0--2--|-0----|
|-0--0--2--0--|-2----|
|-------2-----|-3----|
|-3--2--0-----|------|


    S S S S +S  S +E  +S  S S S +S  S +E
||--3p0---2-(2)-3-(3)-(3)-0---2-(2)-3-(3)-|
||o-----0-------------------0-------------|
||----------------------------------------|
||----------------------------------------|
||o-3-------------------------------------|
||----------------------------------------|
    W


  S S S S +S  S +E  +S  S S S +S  S +E
|---0---2-(2)-3-(3)-(3)-0---2-(2)-3-(3)--||
|-----0-------------------0-------------o||
|----------------------------------------||
|-2--------------------------------------||
|---------------------------------------o||
|----------------------------------------||
  W


 Chorus 2
  G5 D5/Em D5   C             C                 D5      Em
               5/4           4/4
  Q  Q  Q  Q    W        Q    Q  +E. S +Q   +S  S +E    Q  +E. S +E. S +Q
|-------0-----|-0-----------|-0--(0)-0-(0)--(0)-------|-0--(0)--------------||
|-3--3--0--3--|-1-----------|-1--(1)-1-(1)--(1)-3-(3)-|-0--(0)--------------||
|-0--2--0--2--|-0-----------|-0--(0)-0-(0)--(0)-2-(2)-|-0--(0)--------------||
|-0--0--2--0--|-2-----------|-2--(2)-2-(2)--(2)-0-(0)-|-2--(2)--------------||
|-------2-----|-3-----------|-3--(3)-3-(3)--(3)-0-(0)-|-2--(2)--------------||
|-3--2--0-----|-------------|-------------------------|-0--(0)-2-(2)-3-(3)--||


   Outro / End Chorus
    G5 D5/Em D5   C  Am7Am7D5
    Q  Q  Q  Q    Q  Q  Q  Q   8x
||--------0-----|-0-----0------||
||o-3--3--0--3--|-1--1--1--3--o||  Repeat and fade out
||--0--2--0--2--|-0--0--0--2---||
||--0--0--2--0--|-2-----2--0---||
||o-------2-----|-3--2--0-----o||
||--3--2--0-----|--------------||



Tap to rate this tab
 
# A B C D E F G H I J K L M N O P Q R S T U V W X Y Z