Song name
# A B C D E F G H I J K L M N O P Q R S T U V W X Y Z

Patrick Watson - The Storm tab

Help us improve GuitareTab! Take a short survey!
Trivium - The Storm
From their debut self-titled album  
Composed by Matt Heafy
tabbed by jjhand

Standard Tuning

Classical Intro (Clean) - Guitar 1
E|-------------------------------------------------------------------|
B|----------5---------------6---------------8---------------5--------|
G|----5-4-5---5-4-5---7-5-7---7-5-7-------------------5-4-5---5-4-5--|
D|--7---------------7---------------6-9-7-9---9-7-9-7----------------|
A|-------------------------------------------------------------------|
E|-------------------------------------------------------------------|
 |
 | Guitar 2
E|-------------------------------------------------------------------|
B|----------1---------------3---------------0---------------1--------|
G|-------------------------------------------------------------------|
D|------2-------2-------3-------3-------0-------0-------2-------2----|
A|--0---------------0---------------0---------------0----------------|
E|-------------------------------------------------------------------|


   Guitar 1 (rake chord at end of line)
E|-----------------------------------------------------------------------17--|
B|--6-5-3-------------5-4-5---5-4-5---------0-2-4-5---------------------17---|
G|--------4-2-1-----2-------3-------0-2-3-5---------7-9-10-12----------17----|
D|--------------3-2---------------------------------------------------19-----|
A|---------------------------------------------------------------15-19-------|
E|-------------------------------------------------------------17------------|
 |
 | Gtr. 2
E|-------------------------------------------------------------------|
B|-------------------------------------------------------------------|
G|----------2---------------4---------------1---------------2--------|
D|-------------------------------------------------------------------|
A|------3-------3-------5-------5-------2-------2-------3-------3----|
E|--0---------------0---------------0---------------0----------------|


   Guitar 1 (guitar 2 is repeated)
E|--(17)-------------------------|--------------------------------------------------|
B|----------17-17----17-15-------|--------------------------------------------------|
G|-------------------------17-16-|-16-17-16-14-16-14-13-----------------------------|
D|-------------------------------|---------------------15-14-12---------------------|
A|-------------------------------|-----------------------------15-14-15-11-15-14-15-|
E|-------------------------------|--------------------------------------------------|

 Intro Ending- Guitar 2  (Guitar 1 <>)
E|--------------------------------|
B|--------------------------------|
G|--2-----------------------------|
D|--------------------------------|
A|--3--<12>-----------------------|
E|--0-----------------------------|

Tapping Riff (double time feel) 
E|---------------------------------------------------------------------------|
B|---------------------------------------------------------------------------|
G|---------------------------------------------------------------------------|
D|---------------------------------------------------------------------------|
A|---T12-3-7--T12-3-7--T12-5-8--T12-5-8--T12-2-5--T12-2-5--T12-3-7--T12-3-7--|
E|---------------------------------------------------------------------------|

E|-----------------------------------------------------------------------------|
B|-----------------------------------------------------------------------------|
G|-----------------------------------------------------------------------------|
D|-----------------------------------------------------------------------------|
A|-----------------------------------------------------------------------------|
E|---T12-5-8--T12-5-8--T12-7-10--T12-7-10--T12-4-7--T12-4-7--T12-5-8--T12-5-8--|

Repeat Tapping riff 3x, Guitar 2 plays short A5 chord on 1st Repeat
E|-------------------|
B|-------------------|
G|----2--------------|
D|----2--------------|
A|----0--------------|
E|-------------------|

End riff - Guitar 1 (Bottom 3 strings)
D|-------------------------------------------|
A|--------------2---3~-----------------------|
E|--5---4---1--------------------------------|

    Guitar 2
D|--------------0---2~-----------------------|
A|--3---2------------------------------------|
E|----------4--------------------------------|



Riff 1 (play 2x)                      (play 2x)  
E|----------------------------------|-----------------------------------|
B|----------------------------------|-----------------------------------|
G|----------------------------------|-----------------------------------|
D|----------------------------------|------------------0h2-0h2-2h3-2h3--|
A|------------------0h2-0h2-2h3-2h3-|----------3h5-3h5------------------|
E|--0-0-0-0-4h5-4h5-----------------|--1-1-1-1--------------------------|
   PM # # #                           PM # # #
Repeat Riff 1 Then:


Easy PM Verse Riff, played 2x (% = Repeat Pattern)
E|--------------------------|-------------------------|
B|--------------------------|-------------------------|
G|--------------------------|-------------------------|
D|--------------------------|-------------------------|
A|--------------------------|-------------------------|
E|--0-0-0-0---%---%---%-----|--1-1-1-1---%---%---%----|


Chorus (Play 2x, Triplet Feel PM low repeated notes, each measure)
E|--------------------------|---------------------------|-------------------------|
B|--------------------------|---------------------------|-------------------------|
G|--------------------------|---------------------------|-------------------------|
D|--------------------------|---------------------------|-------------------------|
A|--0-0-0-8-0-0-7-0-0-5-0-7-|--------3-----2-----5---3--|--------2-----3-----5/7--|
E|--------------------------|--1-1-1---1-1---1-1---1----|--0-0-0---0-0---0-0------|

    
E|-------------------------|
B|-------------------------|
G|-------------------------|
D|--------------------6-7--|
A|--0-0-0--8-5--0-0-0------|
E|-------------------------| 


Riff 1 repeats, then Verse Riff, then Chorus

Chorus ends abruptly during 2nd time, then:
E|--------------------------|-------------------------|
B|--------------------------|-------------------------|
G|--------2-----------------|---------10--------------|
D|--------2-----------------|---------10--------------|
A|--------0-----------------|---------8---------------|
E|--0-0-0---------%---------|--0-0-0---------%--------|

E|--------------------------|-------------------------|
B|--------------------------|-------------------------|
G|--------7-----------------|---------9---------------|
D|--------7-----------------|---------9---------------|
A|--------5-----------------|---------7---------------|
E|--0-0-0---------%---------|--0-0-0---------%--------|


  Interlude - Guitar 1 (played 2x)
E|--------------------------|--------------------------|
B|--------------------------|--------------------------|
G|--------------------------|--------------------------|
D|--------------------------|--------------------------|
A|--0-7-T12--0-7-T12----%---|--0-8-T12--0-8-T12----%---|
E|--------------------------|--------------------------|
 |
 | Guitar 2 - 1st time (play Guitar 1 part on repeat)
E|--------------------------|-------------------------|
B|--------------------------|-------------------------|
G|--2-2--2--2---2-----------|--10-10--10-10-10----------|
D|--2-2--2--2---2-----------|--10-10--10-10-10----------|
A|--0-0--0--0---0----%------|--8--8---8--8--8-----%-----|
E|--------------------------|-------------------------|

   Guitar 1 continued:
E|--------------------------|--------------------------|
B|--------------------------|--------------------------|
G|--------------------------|--------------------------|
D|--------------------------|--------------------------|
A|--0-5-T10--0-5-T10--%-----|--0-7-T12--0-7-T12--%-----|
E|--------------------------|--------------------------|
 |
 | Guitar 2 continued:
E|--------------------------|-------------------------|
B|--------------------------|-------------------------|
G|--7-7--7--7---7-----------|--9-9--9--9--9-----------|
D|--7-7--7--7---7-----------|--9-9--9--9--9-----------|
A|--5-5--5--5---5----%------|--7-7--7--7--7-----%-----|
E|--------------------------|-------------------------|


This next part is tricky but the rhythm (Guitar 2) has a few repeating riffs
which makes it easier


Begin Solo - Guitar 1 - Play 2x
E|--------------------------------------|
B|--T17-0-5-T17-0-5-T18-0-5-T18-0-5--%--|
G|--------------------------------------|
D|--------------------------------------|
A|--------------------------------------|
E|--------------------------------------|
 |
-------------------------------------------------------------------|
--T17-0-5-T18-0-5-T13-0-5-T13-0-5-T15-0-5-T13-0-5-T18-0-5-T15-0-5--|
-------------------------------------------------------------------|
-------------------------------------------------------------------|
-------------------------------------------------------------------|
-------------------------------------------------------------------|
 |
 |Guitar 2 - Play 2x
E|--------------------------|--------------------------|
B|--------------------------|--------------------------|
G|--------------------------|--------------5--4--9--7--|
D|--2----3-3----2----3-3----|--2--3--7--6--5--4--9--7--|
A|--2----3-3----2----3-3----|--2--3--7--6--3--2--7--5--|
E|--0----1-1----0----1-1----|--0--1--5--4--------------|



   Guitar 1  
E|--12--------12-12-13-16-13-12-|-12-16-12-------------------------------------
B|-----15b17--------------------|---------17-15-12-----12-----14---------------
G|------------------------------|-----------------12-14--12-14-----------------
D|------------------------------|------------------------------------12-----14-
A|------------------------------|-------------------------------12-14--12-14---
E|------------------------------|----------------------------------------------
 |
 | Guitar 2 - 'Drum beat riff'
E|------------------------------|-1st fret (not 11th)------|
B|------------------------------|--------------------------|
G|------------------------------|--------------------------|
D|------------------------------|--------------------------|
A|------------------------------|--------------------------|
E|--000-4--0--0--00000-4--0--00-|-111-5-1-1-11111-5-1-1-11-|



   Solo (Guitar 1 continued from last line)
E|----------|----------------|-----------------------------------|
B|----------|----------------|-----------------------------------|
G|----------|----------------|-----13-14-16-14-13-14h16r14-------|
D|-14-12-10-|----------------|--14------------------------14-12--|
A|----------|-10b11r10~------|-----------------------------------|
E|----------|----------------|-----------------------------------|
              Guitar 2 repeats Drum beat riff


   Guitar 1 (continued from last line)
E|-----------------------------------|---------------171717-161616-191919-------------|
B|-----------------------------------|----------15-----------------------151615-------|
G|--13--14-13--14-13-14-16--14-13-14-|-17-16-14--------------------------------141414-|
D|-----------------------------------|------------------------------------------------|
A|-----------------------------------|------------------------------------------------|
E|-----------------------------------|------------------------------------------------|
 |
 |  Guitar 2 - "Rapid fire riff"
E|-----------------------------------------|-----------------------------------|
B|-----------------------------------------|-----------------------------------|
G|-----------------------------------------|-----------------------------------|
D|-----------------------------------------|-----------------------------------|
A|-----------------------------------------|--------------------------------7~-|
E|--400-500-400-500-4050-700-500-400-5040--|-400-500-400-500-4050-700-7-5-5----|


    Guitar 1 (continued), while  Guitar 2 Repeats "Rapid fire riff"
E|-------------------------------------|-------------------------|
B|-------------------------------------|-------------------------|
G|-16b18-16-14-12-14-16-16b18-14-12----|-------------------------|
D|----------------------------------15-|-15-14-15-15-14----------|
A|-------------------------------------|----------------16-15~---|
E|-------------------------------------|-------------------------|



    Guitar 1 (continued with drum beat riff 2x)
E|--12~--------------------------16TP-|-17p15p12-12-13h15p13p10-10-10h12p10p7-7-5h7p5---0-|
B|-------15b17TP---15--13-12--17TP----|----------------------------------------------0-0--|
G|------------------------------------|---------------------------------------------------|
D|------------------------------------|---------------------------------------------------|
A|------------------------------------|---------------------------------------------------|
E|------------------------------------|---------------------------------------------------|

E|--(0)------0-------------0--|----------0-----0--0--0--0---|
B|-------5-5-----6-6-6-6p5----|--9-9-9p8---9--13-13-12-12~--|
G|----------------------------|-----------------------------|
D|----------------------------|-----------------------------|
A|----------------------------|-----------------------------|
E|----------------------------|-----------------------------|



   Gtr. 1 
E|------------------------------|--4-------5-4--7-5-4~--|--754754754754754-875875875875875-|
B|---1h-3TP-------------6p-3TP--|----3TP----------------|----------------------------------|
G|------------------------------|-----------------------|----------------------------------|
D|------------------------------|-----------------------|----------------------------------|
A|------------------------------|-----------------------|----------------------------------|
E|------------------------------|-----------------------|----------------------------------|
 |
 | Gtr 2 - Riff 4
E|----------------------------------|----------------------------------| repeat
B|----------------------------------|----------------------------------|
G|----------------------------------|----------------------------------|
D|----------------------------------|----------------------------------|
A|-200300200300-2030500-300200-3020-|-200300200300-2030500-300200-3020-|
E|----------------------------------|----------------------------------|



   Guitar 1 (solo)
E|--754754754754754---16b17~-----000--|-19-17-16--19-17-16-19-17-16-19-17-16-19-17-16-
B|------------------------------------|-----------------------------------------------
G|------------------------------------|-----------------------------------------------
D|------------------------------------|-----------------------------------------------
A|------------------------------------|-----------------------------------------------
E|------------------------------------|-----------------------------------------------
 |
 | Guitar 2
E|------------------------------------|-----------------------------------------------
B|------------------------------------|-----------------------------------------------
G|------------------------------------|-----------------------------------------------
D|------------------------------------|-----------------------------------------------
A|------------------------------------|----0-0-0-7-0-0-8-0-7-0-8-0-7-0-8-0------------
E|--Finish repeat---------------------|-----------------------------------------------

   Guitar 1 (contined bar)
E|-20-19-17-20-19-17-20-19-17-20-19-17-|-19-17-16--19-17-16-19-17-16-19-17-16-19-17-16--22b24-b24|
B|-------------------------------------|---------------------------------------------------------|
G|-------------------------------------|---------------------------------------------------------|
D|-------------------------------------|---------------------------------------------------------|
A|-------------------------------------|---------------------------------------------------------|
E|-------------------------------------|---------------------------------------------------------|
 |
 | Guitar 2 (note tenth frets when indicated)
E|------------------------------------|-----------------------------------------------|
B|------------------------------------|-----------------------------------------------|
G|------------------------------------|-----------------------------------------------|
D|------------------------------------|------------------------900-700-600---60-------|
A|--10-0-0-8-0-7-0-0-8-0-7-0-8-0------|---000700-80-70-80-70-80-----------80---8------|
E|------------------------------------|-----------------------------------------------|


   Guitar 1
E|-16h19p16---16h19p16---16h19p16---17h22p17---17h22p17---17h22p17-----|-22b24~--------------b24-|
B|---------17---------17---------17---------19---|-----19---------19---|-------------------------|
G|---------------------------------------------------------------------|-------------------------|
D|---------------------------------------------------------------------|-------------------------|
A|---------------------------------------------------------------------|-------------------------|
E|---------------------------------------------------------------------|-------------------------|
 |
 | Guitar 2 (note tenth frets when indicated)
E|-----------------------------------------------|-----------------------------------------------|
B|-----------------------------------------------|-----------------------------------------------|
G|-----------------------------------------------|-----------------------------------------------|
D|-----------------------------------------------|------------------------900-10-00-900-700-90---|
A|--000-700-807080-7080-10-008-07-00-80-70-80----|---000700-80-70-80-70-80-----------------------|
E|-----------------------------------------------|-----------------------------------------------|

End solo, but guitar 2 plays Drum beat Riff 

Drum beat riff then played by both guitars 3x

Rapid fire riff played 2x

Play riff 4 2x

on 2nd time, guitar 1 plays harmony
E|----------------------------------|-------------------------------------| 
B|----------------------------------|-------------------------------------|
G|----------------------------------|-------------------------------------|
D|----------------------------------|-------------------------------------|
A|-500700500700-5070800-700500-7050-|-700800700800-7080-10-00-800700-8070-|
E|----------------------------------|-------------------------------------|

Play 4x: Guitar 2 (note tenth frets when indicated) 
E|-----------------------------------------------|---------------------------------------------||
B|-----------------------------------------------|--------------------------------------------o||
G|-----------------------------------------------|---------------------------------------------||
D|-----------------------------------------------|------------------------900-700-600---60-----||
A|--000-700-807080-7080-10-008-07-00-80-70-80----|---000700-80-70-80-70-80------------80--80--o||
E|-----------------------------------------------|---------------------------------------------||
 
on repeat 3 & 4 Guitar 1 plays
E|-----------------------------------------------------------------------|
B|-----------------------------------------------------------------------|
G|-----------------------------------------------------------------------|
D|-----------------------------------------------------------------------|
A|-000-11-00-12-00-11-00-12-00-11-00-12-00-14-00-12-00-11-00800-11-00800-|
E|-----------------------------------------------------------------------|

E|-----------------------------------------------------------------------|
B|-----------------------------------------------------------------------|
G|-----------------------------------------------------------------------|
D|-----------------------------------------12----11----9-----11----11----|
A|-000-11-00-12-00-11-00-12-00-11-00-12-00-14-00-12-00-11-00-12-00-12----|
E|-----------------------------------------------------------------------|

Both guitars       Heavy Riff - play 8x   
E|-------------||---------------------------|-----------------------------||
B|-------------||---------------------------|----------------------------o||
G|-7---6---3---||---------------------------|-----------------------------||
D|-7---6---3---||----------------------|-------------------||
A|-5---4---1---||--2--2--2--3-3-3--2--2--2--|-2--2--2--3-3-3--6-6-6--3---o||
E|-5---4---1---||--0--0--0--1-1-1--0--0--0--|-0--0--0--1-1-1--4-4-4--1----||


 Guitar 1 changes after 4x of previous riff
E|-----------------|----------|-----------------|---------|-----------------|-----------------|
B|-----------------|----------|-----------------|---------|-----------------|-----------------|
G|-----------------|----------|-----------------|---------|-----------------|-----------------|
D|--2-----------2--|-2--------|--2-----------2--|-2-------|--2-----------2--|-2-2-------------|
A|--2-----------2--|-2--------|--2-----------2--|-2-------|--2-----------2--|-2-2-------------|
E|--0-----------0--|-0--------|--0-----------0--|-0-------|--0-----------0--|-0-0-------------|

E|-----------------|----------||-Both Gtrs---|
B|-----------------|----------||-------------|
G|-----------------|----------||-7---6---3---|
D|--2-----------2--|-2--------||-7---6---3---|
A|--2-----------2--|-2--------||-5---4---1---|
E|--0-----------0--|-0--------||-5---4---1---|

Back to Riff 1 

Play final Verse Riff

Play Final Chorus


Ending - One Guitar
E|-----------------|-------------|------------|--------||----------|
B|-----------------|-------------|------------|-------o||----------|
G|--2--------------|-------------|--2-----10--|--9-----||--(9)--x--|
D|--2----3------2--|-(2)---------|--2-----10--|--9-----||--(9)--x--|
A|--0----3------2--|-(2)------2--|--0-----8---|--7----o||--(7)--x--|
E|-------1------0--|-(0)---4-----|------------|--------||-------x--|


Lyrics:

Out from the darkness my future is here 
A frigid cold grips my veins 
Foretold through ages beckoning fear 
My nightmares finally here 

Chorus:
Time has now come look to the sun 
A grand failure 
The sky crumbles heaven follows 
The end is here 

Out from the endless hell frozen forest 
I hear the ear piercing screams 
Grey empty skies fill with black cancer 
The beasts are coming for me 

As I stand paralyzed consumed frozen by my fear 
Sun falls reignite the end 
The end 

Now that it's over done with and gone 
I reach cursing the sun 
Blood thirsty warlords take to the sky 
Icy plains graves here I die 

As the pain rises up again 
I question even being human 
Absurd evil seared into mine eyes 
Its here I forever die 
Die 

Key:
()  held ringing note (from previous bar)
b   bend
r   release
pm  palm mute
T   Right hand tap
h   hammer on
p   pull off
~   vibrato (shake string at that fret) 


Related for The Storm tab