Song name
# A B C D E F G H I J K L M N O P Q R S T U V W X Y Z

Patrick Watson - Giver tab

Patrick Watson
-Giver-
http://www.patrickwatson.net

Intro.

Repeat(x4)
E---4----4----4----4----4--------4---4--------4---4-------|
B----5----5----5----5----5---0h2--4---4---2h4--4---4------|
G-----4----4----4----4----4--------4---4--------4---4-----|
D---------------------------------------------------------|
A---------------------------------------------------------|
E---------------------------------------------------------|

E-----4---4------5----5------5---5------------------------|
B------5---5------5----5------5---5-----------------------|
G---6---6------6----6------5---5--------------------------|
D---------------------------------------------------------|
A---------------------------------------------------------|
E---------------------------------------------------------|

Repeat All.

That's it for Patrick Watson : Giver - Intro tab
Tap to rate this tab
# A B C D E F G H I J K L M N O P Q R S T U V W X Y Z