Song name
# A B C D E F G H I J K L M N O P Q R S T U V W X Y Z

Patrick Watson - Big Bird In A Small Cage tab

----------------------------------------------------------------------------
			 Big Bird In a Small Cage - Patrick Watson
--------------------------------------------------------------------------
Tabbed by: Leslie Hendricks
Email: lesliieex3@yahoo.com

First Tab! :]

Tuning: c# - capo 1

e|---0----0----0-----0-----0----0-----0----0----|
B|---1----1----1-----1-----1----1-----1----1----|
G|-----0----------0-----------0----------0------|
D|-2-------------------------------2------------|
A|-----------3----------------------------------|
E|----------------------3-----------------------|

e|---0---0---0---0----0----0----0---------------|
B|---1---1---1---1----1----1----1---------------|
G|-2---2-------2---------2----2-----------------|
D|---------2------------------------------------|
A|------------------0---------------------------|
E|----------------------------------------------|

e|-----0----0------------------------------------|
B|-----1----1------------------------------------|
G|--------2--------------------------------------|   4x
D|--4--------------------------------------------|
A|-----------------------------------------------|
E|-----------------------------------------------|

e|---1----1----1----1----1---1-----1---1---------|
B|---1----1----1----1----1---1-----1---1---------|
G|------2---------2--------2---------2-----------|  2x
D|-3-----------------------------3---------------|
A|-----------3-----------------------------------|
E|---------------------3-------------------------|


************************************

| /   slide up
| \   slide down
| h   hammer-on
| p   pull-off
| ~   vibrato
| +   harmonic
| x   Mute note
| b   Bend
| pb  Pre-bend
| br  Bend release
| pbr Pre-bend release
| brb Bend release bend

************************************
Tap to rate this tab
 
# A B C D E F G H I J K L M N O P Q R S T U V W X Y Z