Patrick Watson - The Great Escape tab

-----------------------------------------------------------------------------
			     THE GREAT ESCAPE - Patrick Watson
-----------------------------------------------------------------------------
Tabbed by: Daniel Iffert
Email: D.Iffert@web.de

Tuning: Standard Tuning, CAPO on 5th fret, Tab relative to CAPO


Intro:  (2x)

e|--------------------------------------------|
B|--------------------------------------------|
G|---1----1----1----1----1----1----1----1-----|
D|---2----2----2----2----2----2----2----2-----|
A|-----2----2----2----2----2----2----2----2---|
E|--------------------------------------------|


Verse:   (5x)

e|---------------------------------------------------------------------------|
B|---------------------------------------------------------------------------|
G|---1----1----1----1----1----1--3----3--4-----------------------------------|
D|---2----2----2----2----2----2--2----2--2-------1---4---4---1-----1---4---4-|
A|-----2----2----2----2----2-------2-------2---2---2---2---2-----1---1---1---|
E|---0-----------------------------------------------------------------------|

e|--------|
B|--------|
G|--------|
D|------1-|
A|---1----|
E|--------|


Chorus:   (2x)

e|---------------------------------------------------------------------------|
B|---------------------------------------------------------------------------|
G|---1----1----1----1----1----1----1----1----1----1----1----1----1----1----1-|
D|---2----2----2----2----2----2----2----2----2----2----2----2----2----2----2-|
A|-----2----2----2----2----2----2----2----2----2----2----2----2----2----2----|
E|---0-------------------0-------------------0-------------------0-----------|

e|-----------|
B|-----------|
G|-----1-----|
D|-----2-----|
A|--2-----2--|
E|-----------|

e|---------------------------------------|
B|---------------------------------------|
G|---------------------------------------|
D|-----1---4---4---1-----1---4---4---1---|
A|---2---2---2---2-----1---1---1---1-----|
E|---------------------------------------|


Verse   (5x)

Chorus   (2x)

Verse   (3x)


Outro:

e|------------------------------------------------|
B|------------------------------------------------|
G|---1----1----1----1----4----4--3----1--4--------|
D|---2----2----2----2----2-------2---------2--1---|
A|-----2----2----2----2----2-------2----------2---|
E|---0--------------------------------------------|



Lyrics:

Verse 1

Bad day, looking for a way
Home,looking for the Great Escape

Gets in his car and drives away
Far from all the things that we are

Puts on a smile and breathes it in
And breathes it out, he says

Bye bye, bye to all of the noise
Oh he says Bye bye, bye to all of the noise


Chorus

Dooh dooh dooh dooh dooooh nooo noo
Dooh dooh dooh dooh doooh nooo noooo nooo noo

Dooh dooh dooh dooh dooooh nooo noo
Dooh dooh dooh dooh doooh nooo noooo nooo noo


Verse 2

Hey child, things are looking down
That's okay, you don't need to win anyways

Don't be afraid, just eat up all the grey
And it will fade all away

Don't let yourself fall down


Chorus

Dooh dooh dooh dooh dooooh nooo noo
Dooh dooh dooh dooh doooh nooo noooo nooo noo

Dooh dooh dooh dooh dooooh nooo noo
Dooh dooh dooh dooh doooh nooo noooo nooo noo


Verse 3

Bad day, looking for the Great Escape
He says bad day, looking for the Great Escape

On a bad day, looking for the Great Escape
The Great Escape



***My first tab. Hope it is alright and you enjoy this wonderful music! :)***
Tap to rate this tab
 
# A B C D E F G H I J K L M N O P Q R S T U V W X Y Z