Song name
# A B C D E F G H I J K L M N O P Q R S T U V W X Y Z

Patrick Watson - Man Like You tab

Tabbed by Daniel
(Based on the tab by Erik)
Website: http://emotionofsound.tumblr.com/

(Optimalized for Word)
====================================================================



Patrick Watson & the Wooden Arms - Man Like You


The song is based on these chords (not relative to capo):
D# (11-13-13-12-11-11---|
Bb/D (10-13-12-10-11-10-|
Cm (8-10-10-8-8-8)------|
Bb (6-8-8-7-6-6)--------|
G# (4-6-6-5-4-4)--------|
D#/C (3-6-5-3-4-3)------|
--
G#m (4-6-6-4-4-4)-----|
Bbm (6-8-8-6-6-6)-----|
B (7-9-9-8-7-7)-------|
C# (9-11-11-10-9-9)---|
D# (11-13-13-12-11-11-|
--
Fm (13-15-15-13-13-13)



Tuning: Standard (EADGBe)

CAPO I

NOTICE! All notes are NOT relative to the capo, I did this because it's easier to 
navigate on the fretboard.

INTRO
Tremolo picking with 2 spoons and some attitude.

VERSE (2x)
   D#             Bb/D           Cm           Bb       G#       D#/C     G# (4x)
e|----------------------------------------------------------------------||-------||
B|----------------------------------------------------------------------||-------||
G|-----12-----12------10-----10-----10----10----8---8----5---5----3---3-||.--5--.||
D|---1------1-------1------1------1-----10-----1---1----1---1----1---1--||.-1---.||
A|----------------------------------------------------------------------||-------||
E|-11-----11------10-----10------8-----8------6---6----4---4----3---3---||-4-----||

CHORUS (1x)
  G#m       Bbm      B        C#           D# (repeat several times)
e|---------------------------------------------------------------------------|
B|---------------------------------------------------------------------------|
G|---4---4----6---6----8---8-----10----10------12----------------------------|
D|--1---1----1---1----1---9----1-----1-------1-------------------------------|
A|---------------------------------------------------------------------------|
E|-4---4----6---6----7---7----9-----9------11--------------------------------|

VERSE (2x)

CHORUS (2x)

INTERLUDE (Hooooohh high) (3x)
   D#                          Bb/D           Fm
e||-------------------------------------------------------------------------||
B||-------------------------------------------------------------------------||
G||.-----12-----12----12-----12------10-----10------13-----13--------------.||
D||.---1------1-----1------1-------1------1-------1------1-----------------.||
A||-------------------------------------------------------------------------||
E||--11-----11----11-----11------10-----10------13-----13-------------------||


(Hooooohh low)
   D#/C  (8x)   G# (8x)    D# (repeat about 40 times)
e|-----------.----------.----------------------------------------------------|
B|-----------.----------.----------------------------------------------------|
G|---3---3---.----5---5-.------12--------------------------------------------|
D|--1---1----.---1---1--.----1-----------------------------------------------|
A|-----------.----------.----------------------------------------------------|
E|-3---3-----.--4---4---.--11------------------------------------------------|

VERSE (do the arpeggio just once, instead of twice for every chord) (2x)

VERSE ('normal') (2x)

CHORUS (2x)

INTERLUDE (Hooooohh high) (2x)
(Hooooohh low) (1x)

VERSE (do the arpeggio just once, instead of twice for every chord) (1x)
Tap to rate this tab
# A B C D E F G H I J K L M N O P Q R S T U V W X Y Z