Song name
# A B C D E F G H I J K L M N O P Q R S T U V W X Y Z

Patrick Watson - The Great Escape tab

I came up with an acoustic fingerpick version for the guitar. Hope you like it!

CAPO 6th FRET

F        

e|-------------------------1--------------|
B|---------------------1------1-----------|
G|----2---2---2---2--------------2--------|
D|--3---3---3---3---3---3---3--3----------|
A|----------------------------------------|
E|----------------------------------------|


        C

e|----------------------------------------|
B|----------------------------------------|
G|--------0-------------------------------|
D|----2-------2---2-----------------------|
A|--3---3---3---3-------------------------|
E|----------------------------------------|


        Em
e|--------3----0--------------------------|
B|----------------------------------------|
G|----------------------------------------|
D|----2------------2----------------------|
A|--2---2---2----2------------------------|
E|----------------------------------------|



F                     C
Bad day, looking for a way home
 Em                     F
Looking for the great escape
Gets in his car and drives away
Far from all the things that we are

Puts on a smile and breathes it in and breathes it out
He says bye bye, bye to all the noise
Oh, he says bye bye, bye to all the noise

F
Doo doo doo doo doo noo noo                              
Doo doo doo doo doo noo noo noo noo

C       Em
F
Doo doo doo doo doo doo doo
Doo doo doo doo doo doo noo noo noo

Hey child, things are looking down
That's okay, you don't need to win anyways
Don't be afraid, just eat up all the grey
And it will fade all away
Don't let yourself fall down

Doo doo doo doo doo noo noo
Doo doo doo doo doo noo noo noo noo
Doo doo doo doo doo doo doo
Doo doo doo doo doo doo noo noo noo

Bad day, looking for the great escape
He says: "Bad day, looking for the great escape."

On a bad day, looking for the great escape
The great escape
Tap to rate this tab
# A B C D E F G H I J K L M N O P Q R S T U V W X Y Z