Song name
# A B C D E F G H I J K L M N O P Q R S T U V W X Y Z

Patrick Wolf - The Secret Garden tab

-------------------------------------------------------------------------------
	             The Secret Garden - Patrick Wolf
-------------------------------------------------------------------------------
Tabbed by: Gallagher2006

Tuning: Standard

This is the short instrumental on The Magic Position. It's in 6/8, and erupts into a 
track about half way through.

This piano riff plays at the start until the end section

e|----0-----------0-----------0---------|
B|------3-1-0-1-----3-1-0-1-----3-1-0-1-|
G|--2-----------2-----------2-----------|
D|--------------------------------------|
A|--------------------------------------|
E|--------------------------------------|

The piano chord that's repeated -

e|-0---------|
B|-1---------|
G|-2---------|
D|-2---------|
A|-0---------|
E|-----------|

Pretty much it =|

It's good nonetheless
Tap to rate this tab
# A B C D E F G H I J K L M N O P Q R S T U V W X Y Z