Guitaretab - guitar tabs
Song name
# A B C D E F G H I J K L M N O P Q R S T U V W X Y Z

Patrick Wolf - Wolf Song tab

-------------------------------------------------------------------------------
                             Wolf Song  Patrick Wolf
-------------------------------------------------------------------------------
Tabbed by: Gallagher2006

Tuning: Standard

Intro: Recorder arranged for guitar

e|------7----5----7---5------------------------------------------------------|
B|--0----------------------7-------------------------------------------------|
G|---------------------------------------------------------------------------|
D|---------------------------------------------------------------------------|
A|---------------------------------------------------------------------------|
E|---------------------------------------------------------------------------|

Ukulele Arranged for guitar

e|-------------------------------2h3p2---------------------------------------|
B|------3----3------3---3---3----------0---3---------------------------------|
G|--------4-----------4-------4----------4-----------------------------------|
D|---5----------4---------2--------------------------------------------------|
A|---------------------------------------------------------------------------|
E|---------------------------------------------------------------------------|

Verse chords ~ Just strum along. These chords are only an approximate, as it's a 
I think he's playing some kind of fifth, but these chords work okay
[ Tab from: http://www.guitaretab.com/p/patrick-wolf/182054.html ]
e|-3------0------2-----0-----------------------------------------------------|
B|-3------3------3-----3-----------------------------------------------------|
G|-0------2------4-----2-----------------------------------------------------|
D|-0------2------4-----2-----------------------------------------------------|
A|-2------0------2-----0-----------------------------------------------------|
E|-3-------------------------------------------------------------------------|
the chorus chords are D G and Bm, played this way (strum along)
e|--0------3-----2-----------------------------------------------------------|
B|--3------3-----3----3-3-3-3------------------------------------------------|
G|--2------4-----4----0-x-x-x------------------------------------------------|
D|--0------5-----4------4-2-0------------------------------------------------|
A|---------------------------------------------------------------------------|
E|---------------------------------------------------------------------------|

There's a little violin riff that pops up every now and again

e|----7----8p7---------------------------------------------------------------|
B|-------------10--8-----8---------------------------------------------------|
G|--------------------9------------------------------------------------------|
D|---------------------------------------------------------------------------|
A|---------------------------------------------------------------------------|
E|---------------------------------------------------------------------------|

It's a really nice song...it got me onto the Violin :P
Related for Wolf Song tab