Song name
# A B C D E F G H I J K L M N O P Q R S T U V W X Y Z

Patrick Wolf - Epilogue tab

-------------------------------------------------------------------------------
			     Epilogue - Patrick Wolf
-------------------------------------------------------------------------------
Tabbed by: David K
Email: thischarmingman13@gmail.com

Tuning: Standard

This is played on ukelele, it's just derivatives of the C chord. It repeats over and 
until the end.

e|---------------------------------------------------------------------------|
B|----1---1---1---1----------------------------------------------------------|
G|---0---0---0---0-----------------------------------------------------------|
D|--2---2---2---2------------------------------------------------------------|
A|-3---2---0---0-------------------------------------------------------------|
E|---------------------------------------------------------------------------|

| /  slide up
| \  slide down
| h  hammer-on
| p  pull-off
| ~  vibrato
| +  harmonic
| x  Mute note
===============================================================================
Tap to rate this tab
# A B C D E F G H I J K L M N O P Q R S T U V W X Y Z