Song name
# A B C D E F G H I J K L M N O P Q R S T U V W X Y Z

Patrick Wolf - Augustine tab

-------------------------------------------------------------------------------
			     AUGUSTINE - Patrick Wolf
-------------------------------------------------------------------------------

Tabbed by:Vi
Email: cloudsunn@gmail.com

ok i know he plays this song with ukulele. but this is how you play it on guitar...
listen to the song, to get the strumming pattern. it's hard to write it in the tab.

verses:
e|---------------------------------------------------------------------|
B|---------------------------------------------------------------------|
G|-11-11-11--9-9-9--7-7-7-7-7/9----------------------------------------|
D|-11-11-11--9-9-9--7-7-7-7-7/9----------------------------------------|3x
A|-9--9--9---7-7-7--5-5-5-5-5/7----------------------------------------|
E|---------------------------------------------------------------------|

e|---------------------------------------------------------------------|
B|---------------------------------------------------------------------|
G|-------11-11-7-7-7-7-7/9---------------------------------------------|
D|-11-11-11-11-7-7-7-7-7/9---------------------------------------------|2x
A|-11-11-9--9--5-5-5-5-5/7---------------------------------------------|
E|-9--9----------------------------------------------------------------|

Chorus:

e|---------------------------------------------------------------------------|
B|---------------------------------------------------------------------------|
G|-7-7-7-7--9-9-9-9--11\6-7--11\6-7------------------------------------------|
D|-7-7-7-7--9-9-9-9--11\6-7--11\6-7------------------------------------------|4x
A|-5-5-5-5--7-7-7-7--9-\4-5--9-\4-5------------------------------------------|
E|---------------------------------------------------------------------------|
   oh...    oh..my   augustine augustine
   oh....   oh.. is this forever ever?
   oh...    sweet   augustine augustine

e|------------------------------------------------------------------------------------|
B|------------------------------------------------------------------------------------|
G|-7-7-7-7--9-9-9---------------------------------------------------------------------|
D|-7-7-7-7--9-9-9---------------------------------------------------------------------|
A|-5-5-5-5--7-7-7---------------------------------------------------------------------|
E|------------------------------------------------------------------------------------|
 what does this mean for us?
back to the verse.

 second chorus:
e|---------------------------------------------------------------------------|
B|---------------------------------------------------------------------------|
G|-7-7-7-7--9-9-9-9--11\6-7--11\6-7------------------------------------------|
D|-7-7-7-7--9-9-9-9--11\6-7--11\6-7------------------------------------------|4x
A|-5-5-5-5--7-7-7-7--9-\4-5--9-\4-5------------------------------------------|
E|---------------------------------------------------------------------------|
   oh...    oh..my   augustine augustine
   oh....   oh.. is this forever ever?
   oh...    sweet   augustine augustine
e|------------------------------------------------------------------------------------------------------------|
B|------------------------------------------------------------------------------------------------------------|
G|-7-7-7-7-9-9-9-9---14-14-14-14-14-14-14--13-13-13-13-13-13-13-----------------------------------------------|
D|-7-7-7-7-9-9-9-9---14-14-14-14-14-14-14--13-13-13-13-13-13-13-----------------------------------------------|
A|-5-5-5-5-7-7-7-7---12-12-12-12-12-12-12--11-11-11-11-11-11-11-----------------------------------------------|
E|---------------------------------------------------------------------------|  do we kill this one  tonight--|           
tonight.....


repeat the 'tonight' bits twice.
back to the verse..


we're done!

| /  slide up
| \  slide down
| h  hammer-on
| p  pull-off
| ~  vibrato
| +  harmonic
Tap to rate this tab
 
# A B C D E F G H I J K L M N O P Q R S T U V W X Y Z