Patti Smith - Because The Night tab

I think this is the tabs to solo, but im not 100% sure. Anyways hope u like it;D

e|---------------------------------------------------|
B|----------------------------------------------10b~~|
G|-----------------------------7-9-7-9b-9b~9b-7------|
D|----------------------5-7/-9-----------------------|
A|---5555555555555555 7------------------------------|
E|---------------------------------------------------|

|--------------------------------------------------10-12 12b 12b~~~|
|---10b-7------------------------------------10-12-----------------|
|---------9b--7---7-9-9b-9b-9~~-------7-9/11-----------------------|
|---------------9-----------------7-9------------------------------|
|------------------------------/9----------------------------------|
|------------------------------------------------------------------|

I sat with this for about 3h and soloved the tabs, sounds good to me ;D
Tap to rate this tab
 
# A B C D E F G H I J K L M N O P Q R S T U V W X Y Z