Song name
# A B C D E F G H I J K L M N O P Q R S T U V W X Y Z

Patti Smith - Because The Night tab

The first version I found here had just a couple wrong notes and was a little more
complicated that it had to be.  I've gone through and tried to correct and make it 
slightly easier.

Basic Version (no bends) with all the notes, played mostly on the first form of the Bm
Pentatonic scale:

e|-----------------------------------------------------------7------|
B|----------------------------------------7---7---7------10~--------|
G|-------------------------------7-9-7-9------------9-7-------------|
D|-------------------------7-9--------------------------------------|
A|---5555555555555555 7-9-------------------------------------------|
E|------------------------------------------------------------------|

|---7----------------------------------------7-10 --12--14~---------|
|-----10-7-------------7-7--------------7-10------------------------|
|-----------9-7----7-9------9~------7-9-----------------------------|
|----------------9---------------7-9--------------------------------|
|------------------------------9------------------------------------|
|-------------------------------------------------------------------|

Same notes, but using bends

e|---------------------------------------------------------------------|
B|----------------------------------------------------------10b12-10~--|
G|-----------------------------7-9-7-9-9b11-9b11-9b11--9-7-------------|
D|------------------------7-9------------------------------------------|
A|---5555555555555555 7-9----------------------------------------------|
E|---------------------------------------------------------------------|

|--------------------------------------------------------------7-10--12--12b14---|
|---10b12-10-7---------------------------------------7-10------------------------|
|---------------9-7----7-9-9b11--9b11---9~-------7-9-----------------------------|
|-------------------9------------------------7-9---------------------------------|
|------------------------------------------9-------------------------------------|
|--------------------------------------------------------------------------------|
Tap to rate this tab
 
# A B C D E F G H I J K L M N O P Q R S T U V W X Y Z