Song name
# A B C D E F G H I J K L M N O P Q R S T U V W X Y Z

Patto - You You Point Your Finger tab

-------------------------------------------------------------------------------
		      YOU, YOU POINT YOUR FINGER - Patto
-------------------------------------------------------------------------------
Tabbed by: Bob Funk
Email: bob_funk11@hotmail.com

Awesome song by a little known band from the 70's. Tabbed by ear from the 1971
album "Hold Your Fire". Listen along to get the feel for the song. The main
chorus chords vary in the way they're strummed but this tab should get you 
through the song fairly well.

Get a friend to play bass along with you. Bass just plays the root notes of
the chords with a little embellishment here and there.

Guitar solo chords are written above the tab. 

Enjoy!

**No official band site, Wikipedia it: http://en.wikipedia.org/wiki/Patto**

Tuning: Standard (EADGBe)

Intro:
e|---------------------------------------------------------------------------|
B|----5-4h5p4------------------4/5~--(4h5p5)------5-------------7-----7------|
G|----6------6------4-6-6----4--------------6p4---6---6-----4-4-----4--------|
D|----------------6-------6--------------------6--6-----4h6-------6----------|
A|--4-4-4-------4-4-4--------4-4------------------4-4-4----------------------|
E|---------------------------------------------------------------------------|

e|-------------------|
B|----4---4---4----4-|
G|--4---6---4---4h6--|
D|-------------------|
A|-------------------|
E|-------------------|

Verses & Choruses:
e|---------------------------------------------------------------------------|
B|--5-----5-----5-----5-----5---4---4----4--4--------------------------------|
G|--6---6---6---6---6---6---6---4---4-------4----/13-9-/11-6-/9-4-/6---------|
D|--6-----------6-----------6---4---6--6----6------------------------6-/9-4--|
A|--4-----------4-----------4---2---6-------6----/11-7-/9--4-/7-2-/4---------|
E|----------------------------------4-------4------------------------4-/7-2--|

e|------0----4----4----2----0----4----4-x-4-x--------------------------------|
B|------0----5----4----2----0----5----4-x-4-x-4------------------------------|
G|------1----6----4----2----1----6----4-x-4-x-4-/6---4-----9-11-6-9-4-6------|
D|--/6--2----6----6----4----2----6----6-x-6-x-4----6---4-6-------------------|
A|------2----4----6----4----2----4----6-x-6-x-2-/4---2-----7-9--4-7-2-4------|
E|--/4--0---------4----2----0---------4-x-4-x------4---2-4-------------------|

e|---------------------------------------------4-----------------------------|
B|--2--------------------5----5-----5--7--7--5---4---------4--4--4-----------|
G|--2-----2---4p2---2-4--6--6---6---6---6--6-6---4---------4----4------------|
D|--2-------4-----4---4--6--------6-6----6---6---4--/6-4---6---6-------------|
A|--0--2h4---------------4----------4--------4---2-------7-6-----------------|
E|---------------------------------------------------------4-----------------|

e|-----------------------------------0--0--4--4--4--4--2----0--0--4--4-------|
B|-----------------------------------0--0--5--5--4--4--2----0--0--5--5-------|
G|--/13-9-/11-6-/9-4-/6--------------1--1--6--6--4--4--2----1--1--6--6-------|
D|----------------------6-/9-4--/6---2--2--6--6--6--6--4----2--2--6--6-------|
A|--/11-7-/9--4-/7-2-/4--------------2--2--4--4--6--6--4----2--2--4--4-------|
E|----------------------4-/7-2--/4---0--0--------4--4--2----0--0-------------|

e|-4-x-4-x-------------------------------------------------------------------|
B|-4-x-4-x-4--------------------------2----2------------4--5--5--5--5--5--4h5|
G|-4-x-4-x-4-/6---4-----9-11-6-9-4-6--2------2----------4--6---6--6--6--6----|
D|-6-x-6-x-4----6---4-6---------------2-2h4----4p2---2--4--6----6--6--6--6---|
A|-6-x-6-x-2-/4---2-----7-9--4-7-2-4--0------------4----2--4-----------------|
E|-4-x-4-x------4---2-4------------------------------------------------------|

e|---------------------------------------------------------------------------|
B|-4--4--4--4------5--5--4--4--4-4-4-4---------------------------------------|
G|--4--4--4--4-4h6-6--6--4--4--4-4-4-4--/13-9-/11-6-/9-4-/6------------------|
D|---6--6--6--6----6--6--4--4--6-6-6-6----------------------6-/9-4-/6--------|
A|-----------------4--4--2--2--6-6-6-6--/11-7-/9--4-/7-2-/4------------------|
E|-----------------------------4-4-4-4----------------------4-/7-2-/4--------|

e|-0--0--4--4--4--4--2--2--0--0--4--4--4-x-4-x-------------------------------|
B|-0--0--5--5--4--4--2--2--0--0--5--5--4-x-4-x-4-----------------------------|
G|-1--1--6--6--4--4--2--2--1--1--6--6--4-x-4-x-4-/6---4-----9-11-6-9-4-6-----|
D|-2--2--6--6--6--6--4--4--2--2--6--6--6-x-6-x-4----6---4-6------------------|
A|-2--2--4--4--6--6--4--4--2--2--4--4--6-x-6-x-2-/4---2-----7-9--4-7-2-4-----|
E|-0--0--------4--4--2--2--0--0--------4-x-4-x------4---2-4------------------|

e|---------------------------------------------------------------------------|
B|--2--------------------5---5-5-5-5-5-5-4-4-4-5-5-5-4-4-4---4-4-4-4-4-4-4---|
G|--2-----2-2---------4--6----6-6-6-6-6-6-4-4-4-6-6-6-4-4-4-4-4-4-4-4-4-4----|
D|--2---------4p2-----4--6----------------------------------6----------------|
A|--0--2h4-------4-2--2--4---------------------------2-----------------------|
E|----------------------------------------------------------4----------------|

e|----------------------------------0--0--4--4--4--4--2--2--0--0--4--4-------|
B|---------------------2------------0--0--5--5--4--4--2--2--0--0--5--5-------|
G|-/13-9-/11-6-/9-4-/6---4p2--------1--1--6--6--4--4--2--2--1--1--6--6-------|
D|---------------------------4--2---2--2--6--6--6--6--4--4--2--2--6--6-------|
A|-/11-7-/9--4-/7-2-/4------------4-2--2--4--4--6--6--4--4--2--2--4--4-------|
E|----------------------------------0--0--------4--4--2--2--0--0-------------|

e|-4-x-4-x----------------------------------------------------------12-9-----|
B|-4-x-4-x-4--------------------------2------------------------9-12-----12-9-|
G|-4-x-4-x-4-/6---4-----9-11-6-9-4-6--2-----2---4b6r4-2---4--9---------------|
D|-6-x-6-x-4----6---4-6---------------2-2h4---4---------4-4--11--------------|
A|-6-x-6-x-2-/4---2-----7-9--4-7-2-4--0----------------------11--------------|
E|-4-x-4-x------4---2-4--------------------------------------9---------------|

                               *possibly recorded mistake but major 3 is there
e|-----12-11----9----------7-------------------------------------------------|
B|-12--9-----12---9---------7---4-4-4--4-------------------------------------|
G|-------------------9---8---8-*5-4-4---4--/13-9-/11-6-/9-4-/6---------------|
D|-------------------11--7------6-6-6-6--6---------------------6-/9-4-/6-----|
A|-------------------11--9------6-6-6------/11-7-/9--4-/7-2-/4---------------|
E|-------------------9---7------4-4-4--------------------------4-/7-2-/4-----|

e|-0--0--4--4--4--4--2--2--0--0--4--4--4-x-4-x-------------------------------|
B|-0--0--5--5--4--4--2--2--0--0--5--5--4-x-4-x-4-4-4-4-----------------------|
G|-1--1--6--6--4--4--2--2--1--1--6--6--4-x-4-x-4-4-4-4-----------------------|
D|-2--2--6--6--6--6--4--4--2--2--6--6--6-x-6-x-4-4-4-4-----------------------|
A|-2--2--4--4--6--6--4--4--2--2--4--4--6-x-6-x-2-2-2-2-----------------------|
E|-0--0--------4--4--2--2--0--0--------4-x-4-x-------------------------------|

Solo:
     C#m                                     B        G#m
e|------------------7-9-------9---7------------------------------------------|
B|---5-7~--7~-7p5--9----7-7p5---9---5-7-7--------7------4----4----4----4-----|
G|----------------6----------------------8--/8~---8------6p4--6p4--6p4--6p4--|
D|----------------------------------------9--------9--/6----6----6----6----6-|
A|---------------------------------------------------------------------------|
E|---------------------------------------------------------------------------|

e|------------------------------------0--0--4--4--4--4--2--2--0--0--4--4-----|
B|--4---------------------------------0--0--5--5--4--4--2--2--0--0--5--5-----|
G|---6p4/13-9-/11-6-/9-4-/6-----------1--1--6--6--4--4--2--2--1--1--6--6-----|
D|--------------------------6-/9-4-/6-2--2--6--6--6--6--4--4--2--2--6--6-----|
A|------/11-7-/9--4-/7-2-/4-----------2--2--4--4--6--6--4--4--2--2--4--4-----|
E|--------------------------4-/7-2-/4-0--0--------4--4--2--2--0--0-----------|
                     C#m
e|-4-x-4-x-----------7~-9------------7-(5)h7-9--12-12-9-11-------------------|
B|-4-x-4-x-4-4-4-4--------7~-7-5-------------------9-------12-9---9-9--------|
G|-4-x-4-x-4-4-4-4---------------6-4----------------------------11----11-9---|
D|-6-x-6-x-4-4-4-4-----------------------------------------------------------|
A|-6-x-6-x-2-2-2-2-----------------------------------------------------------|
E|-4-x-4-x-------------------------------------------------------------------|
          B           G#m
e|---------------------------------------------------------------------------|
B|--------------7---------4----4----4----------------------------------------|
G|----------8-9---8~--4-6--6p4--6p4--6p4-6~----/13-9-/11-6-/9-4-/6-----------|
D|--11\4----------------------6----6----6----11------------------------------|
A|---------------------------------------------/11-7-/9--4-/7-2-/4--2-4-4p2--|
E|-------/7----------------------------------------------------------------4-|

e|--0--0--4--4--4--4--2----------0--0--4--4--4-x-4-x-------------------------|
B|--0--0--5--5--4--4--2----------0--0--5--5--4-x-4-x-4-4-4-4-4-4-4-4--5~-----|
G|--1--1--6--6--4--4--2----------1--1--6--6--4-x-4-x-4-4-4-4-4-4-4-4--6~-----|
D|--2--2--6--6--6--6--4----------2--2--6--6--6-x-6-x-4----------------6~-----|
A|--2--2--4--4--6--6--4---2-4p2--2--2--4--4--6-x-6-x-2----------------4~-----|
E|--0--0--------4--4--2-/4-----4-0--0--------4-x-4-x-------------------------|


************************************

| /   slide up
| \   slide down
| h   hammer-on
| p   pull-off
| ~   vibrato
| +   harmonic
| x   Mute note
| b   Bend
| pb  Pre-bend
| br  Bend release
| pbr Pre-bend release
| brb Bend release bend

************************************
Tap to rate this tab
 
# A B C D E F G H I J K L M N O P Q R S T U V W X Y Z