Song name
# A B C D E F G H I J K L M N O P Q R S T U V W X Y Z

Patty Griffin - One Big Love tab

  Song: One Big Love
 Album: Flaming Red
Artist: Patty Griffin
-------------------------------------------------------------------------------
Tabbed by: Hunter Morris
Email: hunterbmorris@gmail.com

Tuning: Half-Step Down (Eb Ab Db Gb Bb eb)


Verse:

 Guitar 1:
  eb|-------------------------------------------------------------|
  Bb|-------------------------------------------------------------|
  Gb|-------------------------------------------------------------|
  Db|-------------------------------------------------------------|
  Ab|--9/11---11--11-11-9/11-11-11-11^-9--5--5-5-5-7-5--4---4--4--|
  Eb|--0------0---0--0--0----0--0--0---0--0--0-0-0-0-0--0---0--0--|

 Guitar 2:
  eb|--7--7--7--7--7--7--7--7--|
  Bb|--9--9--9--9--9--9--9--9--|
  Gb|--9--9--9--9--9--9--9--9--|
  Db|--------------------------|
  Ab|--------------------------|
  Eb|--------------------------|


Chorus:

A
I guess I'm taking my chances
A                                      E   A  E
Giving up the ring throwing in the gloves
A
I guess I'm taking my chances
A
Trading in my things
                 C#m                  A
For a couple wings on a little white dove


Bridge:

B
I don't know where we are
  C#m       A
And I don't care
  B
And now we're out of gas
     C#m      D    A
And riding on air
Tap to rate this tab
 
# A B C D E F G H I J K L M N O P Q R S T U V W X Y Z