Song name
# A B C D E F G H I J K L M N O P Q R S T U V W X Y Z

Patty Loveless - Hurt Me Bad In A Real Good Way chords

Highlighted       Show chord diagrams
Intro:  Dsus2   G  Dsus2  G 
 
Dsus2                      
Would of never found you  
          G          Dsus2 
If he had wanted to stay  
 
G    Dsus2   Bm  G 
Oh he hurt me bad  
     A         Dsus2  G 
In a real good way  


Dsus2                   
Well he opened my eyes  
     G       Dsus2   
To a world beyond  
       G         D Bm 
That impossible dream  
      A          Dsus2 
I was livin' on  


      G              A               
And I thank my lucky stars each night  
            Bm 
When you're in my arms  
         C#m 
And you're holding me tight  
  D               G 
I realize what it means  
                  A 
To have your true love  


                       Dsus 2 
I would of never found you  
          G         Dsus2   
If he had wanted to stay  
G     Dsus    Bm   G 
Oh he hurt me bad  
     A         Dsus2 
In a real good way 
 

Solo Chords: Dsus2 G  Dsus2 G  Dsus2  Bm  G  A 

Solo:

|-5p2-3p2-0---0h2--------------------------------|
|-----------3-------2h3---2h3--------------------|
|-----------------2----------4-2-----0h2---0h2---|
|--------------------------------5-4-----0-----0-|
|------------------------------------------------|
|------------------------------------------------|

|----------------------------------0-0---3-2-|
|--------------------------------2-2-2h3-3-3-|
|-0h2-----------------------0-2h4------------|
|----5-4-2-0-2h4-------0-2h4-----------------|
|----------------0--2h4----------------------|
|--------------------------------------------|


     G              A 
And I thank my lucky stars each night
            Bm
When you're in my arms  
         C#m 
And your holding me tight  
  D               G 
I realize what it means  
                  A 
To have your true love  


       G               A 
When I look back on my life before  
       Bm 
How my heart got shattered  
       C#m 
With a slammin' door  
  D                     G 
I see how it all had to be  
              A 
For the two of us  


                Dsus2      
Oh the river of tears  
     G          Dsus2 
That flow from my eyes  
        G          Dsus2  Bm        
Was only moving me on  
G        A         Dsus2   
To this paradise  


             G         Dsus2 
I would of never found you  
          G         Dsus2 
If he had wanted to stay  
G     Dsus2   Bm  G 
Oh he hurt me bad  
     A         Dsus2 
In a real good way  
G     Dsus2   Bm 
Oh he hurt me bad  
      A        Dsus2 
In a real good way 

 
Repeat Solo and end with Dsus2
Tap to rate this tab
# A B C D E F G H I J K L M N O P Q R S T U V W X Y Z