Song name
# A B C D E F G H I J K L M N O P Q R S T U V W X Y Z

Patxi - Mordu tab

Mordu by: Patxi

Tab by: Jordan K.

Standard tuning: (E-A-D-G-B-e)

/ = slide up
\ = slide down
~ = let ring
x = Mute
                            
Note*- The solo is not included in this tab. In the intro, you need to strum
really fast. Also note that the strumming patterns are not exact for the verse. If
you have any questions, e-mail me at monkeyyadon@yahoo.com

Intro:
e|----------------|
B|----------------|
G|---4-------7----|   
D|---4---7---7---4|
A|-2-2---7-5-5---4|
E|-----5-5-----2-2|

Verse: 
e|----------------|
B|----------------|
G|--44------77----|  
D|--44--77--77--44|
A|--22--77--55--44|
E|------55------22|
Les dents bien aiguises 
Depuis que je t'ai laisse t'en aller 
------
Le got de ta bouche qui s'en va 
Et moi, j'attends depuis des mois 
------
Toi tu mords la vie  pleines dents 
Ce sera jamais comme avant 

Interlude:
e|----------------------|
B|----------------------|
G|--44------77----------|  
D|--44--77--77--44-44444|
A|--22--77--55--44-44444|
E|------55------22-22222|
J'ai appris que j'pouvais pas vivre dans toi 
Je m'en suis mordu les doigts 
----
J'ai appris que ce n'tait pas un rve 
Je m'en suis mordu les lvres 
----
J'ai compris que t'tais partie pour de bon 
J'avais mordu  l'hameon 

Chorus: 
e|---------------|
B|---------------|
G|--4-----777----|  (x2) 
D|--4--7--777--44|
A|--2--7--555--44|
E|-----5-------22|
Mordu, je suis mordu de toi 

e|----------------------|
B|----------------------|
G|--44------77----------|  
D|--44--77--77--44-44444|
A|--22--77--55--44-44444|
E|------55------22-22222|
Je suis mort de trouille 
Que tu ne reviennes pas 

Bridge:
e|----------|
B|----------|
G|----------|
D|-----11111|  (x4)
A|2222200000|
E|3333311111|
Est-ce que tu reviendras ?

End on:
e|------|
B|------|
G|--4~--| 
D|--4~--|
A|--2~--|
E|------|

If you want to find out more about the band Patxi, you can visit their website at
http://www.patxi.fr/.
Tap to rate this tab
# A B C D E F G H I J K L M N O P Q R S T U V W X Y Z