Song name
# A B C D E F G H I J K L M N O P Q R S T U V W X Y Z

Paul Anka - Put Your Head On My Shoulder tab

G  Em  Am  D  G  C  G/

|-10--14---12--11---10---12---10----|
|-12--15---13--13---12---13---12----|
|-----------------------------------|
|-----------------------------------|
|-----------------------------------|
|-----------------------------------|

(G)                  Emadd9      Em          *1
 Put your head on my shoulder
Am       D             G    Em
 Hold me in your arms, ba-by
Am           D             G    Em
 Squeeze me, oh, so tight, show me
Am        D       G   C  G/
 That you love me too

(G)                    Emadd9      Em        *1
 Put your lips next to mine,  dear
Am         D             G    Em
 Won't you kiss me once, ba-by?
Am      D                   G   Em
 Just a kiss goodnight, an' may-be
Am       D              G    C  G  G7
 You and I will fall in love

D                G
 People say that love's a game
  D                   G
A game you just can't win
   F#7                 Hm
If there's a way, I'll find it some-day
    A7                       D         D7/
And then this fool will rush in.

(G)                  Emadd9     Em           *2
 Put your head on my shoulder
Am       D          G   Em
 Whisper in my ear, baby
Am       D             G      Em
 Words I want to hear, tell me
Am       D                G   Ab/
 Tell me that you love me too.

(Ab)                 Fmadd9    Fm            *3
 Put your head on my shoulder
Bbm      Eb         Ab  Fm
 Whisper in my ear, baby
Bbm      Eb            Ab  Fm
 Words I want to hear, baby
(Bbm      (Eb           Ab       Fm  Bbm  Eb  Abmaj7   Outro
 Put your head on my    shoulder



*1:
|--14-12-11-10----14-12-11-10----10-8-----10-12-10-|
|--15-13-13-12----15-13-13-12----12-10----12-13-12-|
|--------------------------------------------------|
|--------------------------------------------------|
|--------------------------------------------------|
|--------------------------------------------------|

*2:
|--14-12-11-10----14-12-11-10----10-8-----10-|
|--15-13-13-12----15-13-13-12----12-10----12-|
|--------------------------------------------|
|--------------------------------------------|
|--------------------------------------------|
|--------------------------------------------|
                                          (Background: Tell me...)

*3:
|-----15----15---13-12-11-----15----15---13-12-11-|
|--16----16------14-14-13--------16------14-14-13-|
|-------------------------------------------------|
|-------------------------------------------------|
|-------------------------------------------------|
|-------------------------------------------------|

Outro:
   Fm Bbm
|--15-13----12----8-9--11-15-13-|
|--16-14----14----9-11-13-16-13-|
|----------------------------10-|
|----------------------------10-|
|-------------------------------|
|-------------------------------|

Emadd9: 022002
Fmadd9: 133113
Abmaj7: 4x544x
Transcribed by Texas JG
txranger@t-online.de
Comments and rates are welcome
Tap to rate this tab
# A B C D E F G H I J K L M N O P Q R S T U V W X Y Z