Song name
# A B C D E F G H I J K L M N O P Q R S T U V W X Y Z

Paul Baloche - God Of Wonders tab

               
E||-----------------------------|-------------------------|
B||9h10-10-10--9----------------|-------------------------|
G||---------------9----9h11--9--|9h11-11-11--9------------|
D||-----------------------------|---------------9----9--11|
A||-----------------------------|-------------------------|
E||-----------------------------|-------------------------|


           
|---------------------------|--------------------------
|---------------------------|--------------------------|
|---------------------------|--------------------------|
|11h12-12-12--11------------|--------------------------|
|-----------------12--------|14p12---------------16----|
|---------------------------|-----14------12-----------|
Tap to rate this tab
# A B C D E F G H I J K L M N O P Q R S T U V W X Y Z