Guitaretab - guitar tabs
Song name
# A B C D E F G H I J K L M N O P Q R S T U V W X Y Z

Paul Baloche - I Will Boast tab

This is one full step down from the original key played by Paul Baloche.  Personally I 
the higher register for the solo.  If you want it in the original key then just move 
up one full step.

INTRO:
e--------------------------------------------------------------|
B--3--5--6-5-55--3--5--6--5-55--3--5--6--5--6--5---------------|
G-5--------------5----------------5---------------------3/5----|
D--------------------------------------------------------------|
A--------------------------------------------------------------|
E--------------------------------------------------------------|

e----------------------------------------------------------------------|
B--3--5--6-5-55--3--5--6--5-55--3--5--6--5--6--5-----------------------|
G-5--------------5----------------5---------------------3/5----5/3-----|
D----------------------------------------------------------------------|
A----------------------------------------------------------------------|
E----------------------------------------------------------------------|

VERSE:
e----------------------------|
B---------/8-----------------|
G----5-4----7--5---5-4-5-----|
D----------------------------|
A----------------------------|
E----------------------------|
[ Tab from: http://www.guitaretab.com/p/paul-baloche/202521.html ]
SOLO:
e------------------------------------------------------------------------------|
B---- 17---17---17------19---19---19---------19---19---19-------10---10---10---|
G--19--19----19---19--17---17---17---17--17----17---17---17--12---12---12--12--|
D------------------------------------------------------------------------------|
A------------------------------------------------------------------------------|
E------------------------------------------------------------------------------|

e----------------------------------------------------------------------------------|
B---- 17----17---17------19---19---19----------19---19---19--------10---10---10-- -|
G--19---19----19---19--17---17---17---17---17----17---17---17---12---12---12---12--|
D----------------------------------------------------------------------------------|
A----------------------------------------------------------------------------------|
E----------------------------------------------------------------------------------|

e----------------/5--3h5-5/7 -8-7-8-7-8-10-12b----------|
B----------0-1------------------------------------------|
G-2-2-2-2-----------------------------------------------|
D-------------------------------------------------------|
Related for I Will Boast tab
I Will Boast chords by Paul Baloche