Paul Baloche - Glorious tab

Paul Baloche
Glorious
From "Glorious" 

This is 100% accurate, but there are some little lead ditties left out so
you can get creative on those parts.

Capo 5
102 BPM
Intro x2
G / Bm / Em / C 

Verse 1:
G                        Bm   Em
Look inside the mystery,      See the empty cross
D4                      C9 
See the risen Saviour,  Victorious and strong
G                        Bm   Em
No one else above Him,        None as strong to save 
D4                       C9 
He alone has conquered,  The power of the grave 


Chorus 1
     C                                             G   
Glorious, my eyes have the seen the glory of the Lord
     C                                        G
Glorious, He stands above the rulers of the Earth


Verse 2:
Look beyond the tombstone, see the living God 
See the resurrected - Ruler of my heart
No one else above Him, None to match his worth
The hope of his returning - fills the universe

Chorus 2
     C                                             G   
Glorious, my eyes have the seen the glory of the Lord
     C                                        G
Glorious, He stands above the rulers of the Earth
     D         Em  
Glorious, glorious
         C    D     G   /  Bm  /  Em  /  C 
Lord you  are glorious

Bridge 
G / Bm / Em            C
Oh___________ You are Glorious

Chorus 2
Bridge/out - End on G

Intro/Pre-Bridge
e|-------12----------15--12------13--12-------10--12-------------------|
B|--13-------13--12----------10----------------------------------------|
G|----------------------------------------10---------------------------|
D|---------------------------------------------------------------------|
A|---------------------------------------------------------------------|
E|---------------------------------------------------------------------|


Verse (relative to capo 5)
e|---------------------------------------------------------------------|
B|------------3-----------3--------------------------------------------|
G|--0-2-4-2-4---0-2-4-2-4---0-2-4-2------------------------------------|
D|---------------------------------------------------------------------|
A|---------------------------------------------------------------------|
E|---------------------------------------------------------------------|


Paul plays the Bm like this:
e|--2-----|
B|--3-----|
G|--0-----|
D|--0-----|
A|--2-----|
E|--------|

Pretty much a Gmaj7...


Chad Miller
http://www.freetoliveforyou.blogspot.com/
Tap to rate this tab
 
# A B C D E F G H I J K L M N O P Q R S T U V W X Y Z