Song name
# A B C D E F G H I J K L M N O P Q R S T U V W X Y Z

Paul Baloche - Hosanna tab

-------------------------------------------------------------------------------
			     HOSANNA (PRAISE IS RISING) - Paul Baloche
-------------------------------------------------------------------------------
Tabbed by: Tim

Tuning: Standard

e|--------------------------------------10-----------------------------------|
B|--------------------------------10-12--------------------------------------|
G|-9-11-12-11-12-11-12-11-12-11-12-------------------------------------------|
D|---------------------------------------------------------------------------|
A|---------------------------------------------------------------------------|
E|---------------------------------------------------------------------------|

e|---------------------------------------------10---------12-----------------|
B|-------------------------------10-12---------------------------------------|
G|-11-12-11-12-11-12-11-12-11-12----------11-12------11-12-------------------|
D|---------------------------------------------------------------------------|
A|---------------------------------------------------------------------------|
E|---------------------------------------------------------------------------|

e|-10-12--------10-12------------10-12----------10-------10------------------|
B|-------12-10-------12-10-13-12------12-10--------------------10------------|
G|-----------------------------------------11-12----11-12---------12---------|
D|---------------------------------------------------------------------------|
A|---------------------------------------------------------------------------|
E|---------------------------------------------------------------------------|

You'll need to listen to the song for the type of distortion and when to slide, 
hammer-on, bend, etc.

These are the notes used:

E  F# G (repeat F# and G a few times)
A  B  D
F# G  A  B (repeat F# and G a few times)
F# G  D
F# G  E

D  E  B  A
D  E  B  A  C  B
D  E  B  A
F# G  D
F# G  D
A  G
Tap to rate this tab
# A B C D E F G H I J K L M N O P Q R S T U V W X Y Z