Song name
# A B C D E F G H I J K L M N O P Q R S T U V W X Y Z

Paul Baloche - All Because Of The Cross tab

E|----------------------------------------------------------|
B|--------10--12--------13--12------10--12------15--12--10--|
G|--9--9----------7--7--------------------------------------|
D|------------------------------14----------14--------------|
A|----------------------------------------------------------|
E|----------------------------------------------------------|



E|----------------------------------------------------------|
B|--------10--12--------13--12------10--12------15--12--10--|
G|--9--9----------7--7--------------------------------------|
D|------------------------------14----------14--------------|
A|----------------------------------------------------------|
E|----------------------------------------------------------|



E|--------------------------------------------|
B|--7b7--5-------------------7b7--5-----------|
G|----------7--5--4------------------7--5-----|
D|-----------------------------------------7--|
A|--------------------------------------------|
E|--------------------------------------------|



E|--------------------------------------------|
B|--7b7--5-------------------7b7--5-----------|
G|----------7--5--4------------------7--5-----|
D|-----------------------------------------7--|
A|--------------------------------------------|
E|--------------------------------------------|
Tap to rate this tab
 
# A B C D E F G H I J K L M N O P Q R S T U V W X Y Z