Guitaretab - guitar tabs
Song name
# A B C D E F G H I J K L M N O P Q R S T U V W X Y Z

Paul Baloche - I Will Boast tab

guitar tab for  'Paul Balouche - I Will Boast'
[ Tab from: http://www.guitaretab.com/p/paul-baloche/99099.html ]
INTRO
e:-0-2-3-2---0-2-3-2-0-2-3-2---0-2-----0-2-3-2---|
b:3--------3-----------------3-----5-3---------3-|
g:-----------------------------------------------|
d:-----------------------------------------------|
a:-----------------------------------------------|
e:-----------------------------------------------|
                           VERSE
e:0-2-3-2---0-2-3-2-3-2-0-0-----------------------|
b:--------3-----------------3-2-3-4/5-7h8-8-5-5-7-|
g:------------------------------------------------|
d:------------------------------------------------|
a:------------------------------------------------|
e:------------------------------------------------|
          CHORUS
e:--------10-10-10-10\9-9-10-10-10-10-10-10-10-9-|
b:-8-10-10---------------------------------------|
g:-----------------------------------------------|
d:-----------------------------------------------|
a:-----------------------------------------------|
e:-----------------------------------------------|

e:9-10/12-10-10-10-10-10\9-9-10-10-10-10-10-10\9-|
b:-----------------------------------------------|
g:-----------------------------------------------|
d:-----------------------------------------------|
a:-----------------------------------------------|
e:-----------------------------------------------|

e:9-10/12-10--10-12-10---------------------------|
b:-----------------------------------------------|
g:-----------------------------------------------|
d:-----------------------------------------------|
a:-----------------------------------------------|
e:-----------------------------------------------|

i'll be glad to hear how to improve it thank you =D
i play by hearing so pls help me if im wrong cuz i started guitar 1 week ago
and this song 3 days ago .


done by : ME!!! =D


contact me at fatmosquito_92@hotmail.com =D

pls contact me if u wan me to use it for other places thank you!!
Related for I Will Boast tab
I Will Boast chords by Paul Baloche