Song name
# A B C D E F G H I J K L M N O P Q R S T U V W X Y Z

Paul Banks - The Base tab

------------------------------------------------------------------------------
                                 Paul Banks - The Base
-------------------------------------------------------------------------------

Intro/Verse Riff:

e|------------------------------------------------------------------------------|
b|------7-7---7--9-9---7---7-------7-7---7--9-9---7----7------------------------|
g|---6------6--------6---6------6------6---------6---6--------------------------|
d|------------------------------------------------------------------------------|
a|------------------------------------------------------------------------------|
e|------------------------------------------------------------------------------|

e|------------------------------------------------------------------------------|
b|------7-7---7--9-9---7---7-------7-7---7--9-9---7----7------------------------|
g|---9------9--------9---9------9------9---------9---9--------------------------|
d|------------------------------------------------------------------------------|
a|------------------------------------------------------------------------------|
e|------------------------------------------------------------------------------|

Chorus:

e|-------11-----------11-----12-------11----------11-----------------------------|
b|----------10-----10------10------------10----------10----11--------------------|
g|---9-9-------9-9-------9------11-11-------11-11-------11-----------------------|
d|-------------------------------------------------------------------------------|
a|-------------------------------------------------------------------------------|
e|-------------------------------------------------------------------------------|




MAJP, Thanks.
Tap to rate this tab
# A B C D E F G H I J K L M N O P Q R S T U V W X Y Z