Song name
# A B C D E F G H I J K L M N O P Q R S T U V W X Y Z

Paul Baribeau - When You Go Back To College tab

My first tab...

Palm Mute the Verses:

e-----------------------------------------------------|
b-----------------------------------------------------|
g-----------------------------------------------------|
d--6--8--9--8--6--8--9--11----------------------------|
a--6--8--9--8--6--8--9--11----------------------------|
E--4--6--7--6--4--6--7--9-----------------------------|

Then:

e--2--6--2--4--|
b--2--8--4--6--|
g--3--8--4--6--|
d--4--8--4--6--|
a--4--6--2--4--|
E--2-----------|

Do each 3x
Tap to rate this tab
 
# A B C D E F G H I J K L M N O P Q R S T U V W X Y Z