Song name
# A B C D E F G H I J K L M N O P Q R S T U V W X Y Z

Paul Cary - Angel From Heaven chords

Highlighted       Show chord diagrams
Capo 3

-------------------------------------------------------------------------------
			     Angel From Heaven - Paul Cary
                               http://paulcary.bandcamp.com/
-------------------------------------------------------------------------------

Tabbed by: Fordprefectao
Email:

Tuning: Standard, Capo 3

Intro:

e|-----------------------|
B|-0---------------------|
G|-----0-----------------|    X4
D|-------2-------0-------|
A|----------2h4----------|
E|-----------------------|

e|-----------------------------|
B|-----------------------------|
G|--------0---0h2-0-2----------|
D|-2--2h4-----2---2------------|  X2
A|-0--0------------------------|
E|-----------------------------|

|------------------------------|
B|-0---------------------------|
G|-----0-----------------------|    X2
D|-------2-------0-------------|
A|----------2h4----------------|
E|-----------------------------|


Play mostly the lower three strings, and add in a 7th chord every once in a while.

E
Pretty haired girl

That I seen around
                          A
You know she works on the dock

On the dirty side of town

              E
And she probably gets asked out

200 times a day
        A
So I better think of something a little more

witty or clever to say
E
Maybe I oughta tell'er shes ugly

And wait for her reaction
         A
And if i get her attention

Thats when I'll start asking

                 E
Are you an angel from heaven

Did you fall down from the sky
                A
Did they let you keep your wings

Are they still workin can you fly
E
Us away

A
MMM Can you fly us away


(Repeat everything once)
Tap to rate this tab
# A B C D E F G H I J K L M N O P Q R S T U V W X Y Z