Song name
# A B C D E F G H I J K L M N O P Q R S T U V W X Y Z

Paul Colman - If I Was Jesus tab

this is a fun song to play and i noticed that there were no tablature of it!
so i made  i made one :)this is not how Paul Colman plays it, but it sounds like it! 
hope you enjoy! :D GOD BLESS YOU! :D <3

Capo: 2 fret! 

intro:

     D
|-----2---2h3---------3p2------2---|
|-------3------3-----------3-------|
|---2-------------2----------------|    x2
|---0------------------------------|
|----------------------------------|
|----------------------------------|


verse: 1

|-----2---2h3---------3p2------2---|
|-------3------3-----------3-------|
|---2-------------2----------------|    x3
|---0------------------------------|
|----------------------------------|
|----------------------------------|

|----------------------------------|
|-----2----2h3--------3p2------2---|
|-------2-------2-----------2------|    x1
|---2--------------2---------------|
|---0------------------------------|
|----------------------------------|

REPRAT TWO TIMES! ;)


chorus:

G          C               D           Asus4
   And i`d lay my life down for you
G          C                 D         Asus4
   And i`d show you who`s the boss
G        C               D           Asus4
   I`d forgive you and adore you 
G                C               D     Asus4
   while i was hanging on your cross


Verse 2: 

|-----2---2h3---------3p2------2---|
|-------3------3-----------3-------|
|---2-------------2----------------|    x3
|---0------------------------------|
|----------------------------------|
|----------------------------------|

|----------------------------------|
|-----2----2h3--------3p2------2---|
|-------2-------2-----------2------|    x1
|---2--------------2---------------|
|---0------------------------------|
|----------------------------------|

REPEAT TWO TIMES! ;)

chorus:

G          C               D           Asus4
   And i`d lay my life down for you
G          C                 D         Asus4
   And i`d show you who`s the boss
G        C               D           Asus4
   I`d forgive you and adore you 
G                C               D     Asus4
   while i was hanging on your cross


bridge thing:

|-----2---2h3---------3p2------2---|
|-------3------3-----------3-------|
|---2-------------2----------------|    x4
|---0------------------------------|
|----------------------------------|
|----------------------------------|

guitar drum solo:

mute the bit that is coming with your palm:

|-----2---2h3---------3p2------2---|
|-------3------3-----------3-------|
|---2-------------2----------------|    x3
|---0------------------------------|
|----------------------------------|
|----------------------------------|

now you do not mute it! :)

|----------------------------------|
|-----2----2h3--------3p2------2---|
|-------2-------2-----------2------|    x1
|---2--------------2---------------|
|---0------------------------------|
|----------------------------------|

chorus: x2

outro:

|-----2---2h3---------3p2------2---|
|-------3------3-----------3-------|
|---2-------------2----------------|    x3
|---0------------------------------|
|----------------------------------|
|----------------------------------|



-tabbed by Daniel Østebøvik
Tap to rate this tab
# A B C D E F G H I J K L M N O P Q R S T U V W X Y Z