Song name
# A B C D E F G H I J K L M N O P Q R S T U V W X Y Z

Paul Dempsey - Ramona Was A Waitress tab

BAND WEBSITE: http://pauldempseymusic.com/new/home.html

RAMONA WAS A WAITRESS by PAUL DEMPSEY from EVERYTHING IS TRUE (2009)

STANDARD TUNING

0:00 - Hit a Low E

VERSE
   0:06                            X2
e|-------------------------------------------------------------------------|
B|-------------------------------------------------------------------------|
G|-------------------------------------------------------------------------|
D|--------7---7------------------11--11---------------2--2-----------2-2---|
A|-----7---------7-----------11----------11---------2------2-------2-----2-|
E|-5-5--------------5---9-9------------------9--0-0----------0-0-0--------0|

  0:18
e|------------------------------------------------------------------------>
B|------------------------------------------------------------------------>
G|------------------------------------------------------------------------>
D|-------7-7------------11-11------------9-9--------------14-14----------->
A|-----7-----7-------11-------11-------9-----9---------14-------14-------->
E|-5-5---------5-9-9-------------9-7-7---------7-12-12-------------12----->
                              0:27
<-------------------------------------------------------------------|
<-------------------------------------------------------------------|
<-------------------------------------------------------------------|
<-------7-7-----------9-9-----------2-2-----------2-2---------------|
<-----7-----7-------9-----9-------2-----2-------2-----2-------------|
<-5-5---------5-7-7---------7-0-0---------0-0-0---------0-----------|

   0:30                          X2
e|-------------------------------------------------------------------------|
B|-------------------------------------------------------------------------|
G|-------------------------------------------------------------------------|
D|--------7---7------------------11--11---------------2--2-----------2-2---|
A|-----7---------7-----------11----------11---------2------2-------2-----2-|
E|-5-5--------------5---9-9------------------9--0-0----------0-0-0--------0|


  0:42
e|------------------------------------------------------------------------>
B|------------------------------------------------------------------------>
G|------------------------------------------------------------------------>
D|-------7-7------------11-11------------9-9--------------14-14----------->
A|-----7-----7-------11-------11-------9-----9---------14-------14-------->
E|-5-5---------5-9-9-------------9-7-7---------7-12-12-------------12----->
                              
<-----------------------------|
<-----------------------------|
<-----------------------------|
<-------7-7-----------9-9-----|
<-----7-----7-------9-----9---|
<-5-5---------5-7-7---------7-|

CHORUS
 1.  I don't need       these arms      anymore 
 2.  I don't need       this heard      now to love
e|---------------------------------------------------|
B|---------------------------------------------------|
G|---------------------------------------------------|  X2 then....
D|--2------------------7--------------6--------------| 
A|--2------------------7--------------6--------------|
E|--0------------------5--------------4--------------|

       I don't need       these skin and bones  ah ah......
e|------------------------------------------------------------------|
B|------------------------------------------------------------------|
G|------------------------------------------------------------------|
D|-2------------------7------------11-----------7--6--4----2--------|
A|-2------------------7------------11-----------7--6--4----2--------|
E|-0------------------5------------9------------5--4--2----0--------|
Tap to rate this tab
# A B C D E F G H I J K L M N O P Q R S T U V W X Y Z