Song name
# A B C D E F G H I J K L M N O P Q R S T U V W X Y Z

Paul Dempsey - Out The Airlock tab

Song: Out the Airlock
Artist: Paul Dempsey
Album: Everything is True (2009)
tabbed by Jason Nunn


INTRO
eb-------5---------5---|-------2-------------|-------5---------5---|-------2-------------|
Bb---3-----3---3-----3-|---3-----3---3---3---|---3-----3---3-----3-|---3-----3---3---3---|
Gb---2---------2-------|---2---------2---2---|---2---------2-------|---2---------2---2---|
Db-4---4-----0---0-----|-5---5---------2---2h|-4---4-----0---0-----|-5---5---------2---2h|
Ab---------------------|-----------0---------|---------------------|-----------0---------|
Eb---------------------|---------------------|---------------------|---------------------|

VERSE 1
eb-------5---------5---|-------2-------------|-------5---------5---|-------2-------------|
Bb---3-----3---3-----3-|---3-----3---3---3---|---3-----3---3-----3-|---3-----3---3---3---|
Gb---2---------2-------|---2---------2---2---|---2---------2-------|---2---------2---2---|
Db-4---4-----0---0-----|-5---5---------2---2h|-4---4-----0---0-----|-5---5---------2---2h|
Ab---------------------|-----------0---------|---------------------|-----------0---------|
Eb---------------------|---------------------|---------------------|---------------------|

eb-------5---------5---|-------2-------------|-------5---------5---|-------2-------------|
Bb---3-----3---3-----3-|---3-----3---3---3---|---3-----3---3-----3-|---3-----3---3---3---|
Gb---2---------2-------|---2---------2---2---|---2---------2-------|---2---------2---2---|
Db-4---4-----0---0-----|-5---5---------2---2h|-4---4-----0---0-----|-5---5---------2---2h|
Ab---------------------|-----------0---------|---------------------|-----------0---------|
Eb---------------------|---------------------|---------------------|---------------------|

FILL
eb-------5---------5---|-------2---------2---|-------5---------5---|-------2---------2---|
Bb---3-----3---3-----3-|---5-----3---3-----3-|---3-----3---3-----3-|---5-----3---3-----3-|
Gb---2---------2-------|---4---------2-------|---2---------2-------|---4---------2-------|
Db-4---4-----0---0-----|---------------------|-4---4-----0---0-----|---------------------|
Ab---------------------|-4---4---------------|---------------------|-4---4---------------|
Eb---------------------|-----------3---3-----|---------------------|-----------3---3-----|

VERSE 2
eb-------5---------5---|-------2-------------|-------5---------5---|-------2-------------|
Bb---3-----3---3-----3-|---3-----3---3---3---|---3-----3---3-----3-|---3-----3---3---3---|
Gb---2---------2-------|---2---------2---2---|---2---------2-------|---2---------2---2---|
Db-4---4-----0---0-----|-5---5---------2---2h|-4---4-----0---0-----|-5---5---------2---2h|
Ab---------------------|-----------0---------|---------------------|-----------0---------|
Eb---------------------|---------------------|---------------------|---------------------|

eb-------5---------5---|-------2-------------|------5---------5----|-------2---------2---|
Bb---3-----3---3-----3-|---3-----3---3---3---|---3-----3---3-----3-|---5-----5---5-----5-|
Gb---2---------2-------|---2---------2---2---|---2---------2-------|---4---------4-------|
Db-4---4-----0---0-----|-5---5---------2---2h|-4---4-----0---0-----|---------------------|
Ab---------------------|-----------0---------|---------------------|-4---4-----4---4-----|
Eb---------------------|---------------------|---------------------|---------------------|

CHORUS
eb-------2---------2---|-------5---------5---|-------2---------2---|-------2---------2---|
Bb---3-----3---3-----3-|---3-----3---3-----3-|---5-----5---5-----5-|---3-----3---2-----2-|
Gb---2---------2-------|---2---------2-------|---4---------4-------|---2---------2-------|
Db---------------------|-0---0-----0---0-----|---------------------|---------------------|
Ab---------------------|---------------------|-4---4-----4---4-----|-2---2-----0---0-----|
Eb-3---3-----3---3-----|---------------------|---------------------|---------------------|

eb-------2---------2---|-------2---------2---|-------5---------5---|-------2---------2---|
Bb---3-----3---3-----3-|---3-----3---3-----3-|---3-----3---3-----3-|---3-----3---3-----3-|
Gb---2---------2-------|---2---------2-------|---2---------2-------|---2---------2-------|
Db---------------------|---------------------|-0---0-----0---0-----|---------------------|
Ab---------------------|---------------------|---------------------|---------------------|
Eb-3---3-----3---3-----|-2---2-----3---3-----|---------------------|-2---2-----3---3-----|

eb-------5---------5---|-------2---------2---|
Bb---3-----3---3-----3-|---5-----3---3-----3-|
Gb---2---------2-------|---4---------2-------|
Db-0---0-----0---0-----|---------------------|
Ab---------------------|-4---4---------------|
Eb---------------------|-----------3---3-----|

VERSE 3
eb-------5---------5---|-------2-------------|-------5---------5---|-------2-------------|
Bb---3-----3---3-----3-|---3-----3---3---3---|---3-----3---3-----3-|---3-----3---3---3---|
Gb---2---------2-------|---2---------2---2---|---2---------2-------|---2---------2---2---|
Db-4---4-----0---0-----|-5---5---------2---2h|-4---4-----0---0-----|-5---5---------2---2h|
Ab---------------------|-----------0---------|---------------------|-----------0---------|
Eb---------------------|---------------------|---------------------|---------------------|

eb-------5---------5---|-------2-------------|------5---------5----|-------2---------2---|
Bb---3-----3---3-----3-|---3-----3---3---3---|---3-----3---3-----3-|---5-----5---5-----5-|
Gb---2---------2-------|---2---------2---2---|---2---------2-------|---4---------4-------|
Db-4---4-----0---0-----|-5---5---------2---2h|-4---4-----0---0-----|---------------------|
Ab---------------------|-----------0---------|---------------------|-4---4-----4---4-----|
Eb---------------------|---------------------|---------------------|---------------------|

CHORUS
eb-------2---------2---|-------5---------5---|-------2---------2---|-------2---------2---|
Bb---3-----3---3-----3-|---3-----3---3-----3-|---5-----5---5-----5-|---3-----3---2-----2-|
Gb---2---------2-------|---2---------2-------|---4---------4-------|---2---------2-------|
Db---------------------|-0---0-----0---0-----|---------------------|---------------------|
Ab---------------------|---------------------|-4---4-----4---4-----|-2---2-----0---0-----|
Eb-3---3-----3---3-----|---------------------|---------------------|---------------------|

eb-------2---------2---|-------2---------2---|-------5---------5---|-------2---------2---|
Bb---3-----3---3-----3-|---3-----3---3-----3-|---3-----3---3-----3-|---3-----3---3-----3-|
Gb---2---------2-------|---2---------2-------|---2---------2-------|---2---------2-------|
Db---------------------|---------------------|-0---0-----0---0-----|---------------------|
Ab---------------------|---------------------|---------------------|---------------------|
Eb-3---3-----3---3-----|-2---2-----3---3-----|---------------------|-2---2-----3---3-----|

eb-------5---------5---|-------2---------2---|
Bb---3-----3---3-----3-|---3-----3---3-----3-|
Gb---2---------2-------|---2---------2-------|
Db-0---0-----0---0-----|---------------------|
Ab---------------------|---------------------|
Eb---------------------|-2---2-----3---3-----|

BRIDGE
eb-------2---------2---|-----------------2---|-------3---------3---|-------5---------2---|
Bb---3-------3-------3-|---2----2----2-----2-|---3-----2---3-----2-|---3-----2---2-----2-|
Gb---2-------2---------|---2----2----2-------|---2---------2-------|---2---------2-------|
Db---------------------|---------------------|---------------------|-0-------------------|
Ab-2-------------------|-0-------------------|---------------------|-----------0---------|
Eb---------------------|---------------------|-3-------------------|---------------------|

eb-------2-------------|-2-------------------|
Bb---5-----4---5---3---|-3-------------------|
Gb---4---------4-------|-2-------------------|
Db---------------------|---------------------|
Ab---------------------|---------------------|
Eb-4-------------------|-3-------------------|

FILL
eb-------5---------5---|-------2---------2---|-------5---------5---|-------2---------2---|
Bb---3-----3---3-----3-|---5-----3---3-----3-|---3-----3---3-----3-|---5-----3---3-----3-|
Gb---2---------2-------|---4---------2-------|---2---------2-------|---4---------2-------|
Db-0---0-----0---0-----|---------------------|-0---0-----0---0-----|---------------------|
Ab---------------------|-4---4---------------|---------------------|-4---4---------------|
Eb---------------------|-----------3---3-----|---------------------|-----------3---3-----|

VERSE 4
eb---------------------|---------------------|---------------------|---------------------|
Bb---3-----------------|---3-----------------|---3-----------------|---3---------5-------|
Gb---2-----------------|---2-----------------|---2-----------------|---2---------4-------|
Db-0-------------------|---------------------|-0-------------------|---------------------|
Ab---------------------|---------------------|---------------------|-2---------4---------|
Eb---------------------|-3-------------------|---------------------|---------------------|

eb---------------------|---------------------|-------2-------------|-------2---------2---|
Bb---3-----------------|---3-----------------|---3--------3--------|---5-----5---5-----5-|
Gb---2-----------------|---2-----------------|---2--------2--------|---4---------4-------|
Db-0-------------------|---------------------|-0-------------------|---------------------|
Ab---------------------|---------------------|---------------------|-4---4-----4---4-----|
Eb---------------------|-3-------------------|---------------------|---------------------|

CHORUS
eb-------2---------2---|-------5---------5---|-------2---------2---|-------2---------2---|
Bb---3-----3---3-----3-|---3-----3---3-----3-|---5-----5---5-----5-|---3-----3---2-----2-|
Gb---2---------2-------|---2---------2-------|---4---------4-------|---2---------2-------|
Db---------------------|-0---0-----0---0-----|---------------------|---------------------|
Ab---------------------|---------------------|-4---4-----4---4-----|-2---2-----0---0-----|
Eb-3---3-----3---3-----|---------------------|---------------------|---------------------|

eb-------2---------2---|-------2---------2---|-------5---------5---|-------2---------2---|
Bb---3-----3---3-----3-|---3-----3---3-----3-|---3-----3---3-----3-|---3-----3---3-----3-|
Gb---2---------2-------|---2---------2-------|---2---------2-------|---2---------2-------|
Db---------------------|---------------------|-0---0-----0---0-----|---------------------|
Ab---------------------|---------------------|---------------------|---------------------|
Eb-3---3-----3---3-----|-2---2-----3---3-----|---------------------|-2---2-----3---3-----|

eb-------5---------5---|-------2---------2---|-------5---------5---|-------2---------2---|
Bb---3-----3---3-----3-|---3-----3---3-----3-|---3-----3---3-----3-|---3-----3---3-----3-|
Gb---2---------2-------|---2---------2-------|---2---------2-------|---2---------2-------|
Db-0---0-----0---0-----|---------------------|-0---0-----0---0-----|---------------------|
Ab---------------------|---------------------|---------------------|---------------------|
Eb---------------------|-2---2-----3---3-----|---------------------|-2---2-----3---3-----|

eb-2-------------------|
Bb-3-------------------|
Gb-2-------------------|
Db-0-------------------|
Ab---------------------|
Eb---------------------|

Tap to rate this tab
 
# A B C D E F G H I J K L M N O P Q R S T U V W X Y Z