Song name
# A B C D E F G H I J K L M N O P Q R S T U V W X Y Z

Paul Dempsey - Out The Airlock tab

Song: Out The Airlock
Artist: Paul Dempsey
Album: Everything is True

NB: the last tab I uploaded has the same notes but this is the way Paul
plays it with a capo on the first fret. There were a few typos in the last one too.

Standard Tuning
Capo 1st Fret


INTRO
e-------3---------3---|-------0-------------|-------3---------3---|-------0-------------|
B---1-----1---1-----1-|---1-----1---1---1---|---1-----1---1-----1-|---1-----1---1---1---|
G---0---------0-------|---0---------0---0---|---0---------0-------|---0---------0---0---|
D-2---2---------------|-3---3---------0---0h|-2---2---------------|-3---3---------0---0h|
A-----------3---3-----|---------------------|-----------3---3-----|---------------------|
E---------------------|-----------3---------|---------------------|-----------3---------|

VERSE 1
e-------3---------3---|-------0-------------|-------3---------3---|-------0-------------|
B---1-----1---1-----1-|---1-----1---1---1---|---1-----1---1-----1-|---1-----1---1---1---|
G---0---------0-------|---0---------0---0---|---0---------0-------|---0---------0---0---|
D-2---2---------------|-3---3---------0---0h|-2---2---------------|-3---3---------0---0h|
A-----------3---3-----|---------------------|-----------3---3-----|---------------------|
E---------------------|-----------3---------|---------------------|-----------3---------|

e-------3---------3---|-------0-------------|-------3---------3---|-------0-------------|
B---1-----1---1-----1-|---1-----1---1---1---|---1-----1---1-----1-|---1-----1---1---1---|
G---0---------0-------|---0---------0---0---|---0---------0-------|---0---------0---0---|
D-2---2---------------|-3---3---------0---0h|-2---2---------------|-3---3---------0---0h|
A-----------3---3-----|---------------------|-----------3---3-----|---------------------|
E---------------------|-----------3---------|---------------------|-----------3---------|

FILL
e-------3---------3---|-------0---------0---|-------3---------3---|-------0---------0---|
B---1-----1---1-----1-|---3-----3---1-----1-|---1-----1---1-----1-|---3-----3---1-----1-|
G---0---------0-------|---2---------0-------|---0---------0-------|---2---------0-------|
D-2---2---------------|---------------------|-2---2---------------|---------------------|
A-----------3---3-----|-2---2---------------|-----------3---3-----|-2---2---------------|
E---------------------|-----------1---1-----|---------------------|-----------1---1-----|

VERSE 2
e-------3---------3---|-------0-------------|-------3---------3---|-------0-------------|
B---1-----1---1-----1-|---1-----1---1---1---|---1-----1---1-----1-|---1-----1---1---1---|
G---0---------0-------|---0---------0---0---|---0---------0-------|---0---------0---0---|
D-2---2---------------|-3---3---------0---0h|-2---2---------------|-3---3---------0---0h|
A-----------3---3-----|---------------------|-----------3---3-----|---------------------|
E---------------------|-----------3---------|---------------------|-----------3---------|

e-------3---------3---|-------0-------------|-------3---------3---|-------0---------0---|
B---1-----1---1-----1-|---1-----1---1---1---|---1-----1---1-----1-|---3-----3---3-----3-|
G---0---------0-------|---0---------0---0---|---0---------0-------|---2---------2-------|
D-2---2---------------|-3---3---------0---0h|-2---2---------------|---------------------|
A-----------3---3-----|---------------------|-----------3---3-----|-2---2-----2---2-----|
E---------------------|-----------3---------|---------------------|---------------------|

CHORUS
e-------0---------0---|-------3---------3---|-------0---------0---|-------0---------0---|
B---1-----1---1-----1-|---1-----1---1-----1-|---3-----3---3-----3-|---1-----1---0-----0-|
G---0---------0-------|---0---------0-------|---2---------2-------|---0---------0-------|
D---------------------|---------------------|---------------------|---------------------|
A---------------------|-3---3-----3---3-----|-2---2-----2---2-----|-0---0---------------|
E-1---1-----1---1-----|---------------------|---------------------|-----------3---3-----|

e-------0---------0---|-------0---------0---|-------3---------3---|-------0---------0---|
B---1-----1---1-----1-|---1-----1---1-----1-|---1-----1---1-----1-|---1-----1---1-----1-|
G---0---------0-------|---0---------0-------|---0---------0-------|---0---------0-------|
D---------------------|---------------------|---------------------|---------------------|
A---------------------|---------------------|-3---3-----3---3-----|---------------------|
E-1---1-----1---1-----|-0---0-----1---1-----|---------------------|-0---0-----1---1-----|

e-------3---------3---|-------0---------0---|
B---1-----1---1-----1-|---3-----3---1-----1-|
G---0---------0-------|---2---------0-------|
D---------------------|---------------------|
A-3---3-----3---3-----|-2---2---------------|
E---------------------|-----------1---1-----|

VERSE 3
e-------3---------3---|-------0-------------|-------3---------3---|-------0-------------|
B---1-----1---1-----1-|---1-----1---1---1---|---1-----1---1-----1-|---1-----1---1---1---|
G---0---------0-------|---0---------0---0---|---0---------0-------|---0---------0---0---|
D-2---2---------------|-3---3---------0---0h|-2---2---------------|-3---3---------0---0h|
A-----------3---3-----|---------------------|-----------3---3-----|---------------------|
E---------------------|-----------3---------|---------------------|-----------3---------|

e-------3---------3---|-------0-------------|-------3---------3---|-------0---------0---|
B---1-----1---1-----1-|---1-----1---1---1---|---1-----1---1-----1-|---3-----3---3-----3-|
G---0---------0-------|---0---------0---0---|---0---------0-------|---2---------2-------|
D-2---2---------------|-3---3---------0---0h|-2---2---------------|---------------------|
A-----------3---3-----|---------------------|-----------3---3-----|-2---2-----2---2-----|
E---------------------|-----------3---------|---------------------|---------------------|

CHORUS
e-------0---------0---|-------3---------3---|-------0---------0---|-------0---------0---|
B---1-----1---1-----1-|---1-----1---1-----1-|---3-----3---3-----3-|---1-----1---0-----0-|
G---0---------0-------|---0---------0-------|---2---------2-------|---0---------0-------|
D---------------------|---------------------|---------------------|---------------------|
A---------------------|-3---3-----3---3-----|-2---2-----2---2-----|-0---0---------------|
E-1---1-----1---1-----|---------------------|---------------------|-----------3---3-----|

e-------0---------0---|-------0---------0---|-------3---------3---|-------0---------0---|
B---1-----1---1-----1-|---1-----1---1-----1-|---1-----1---1-----1-|---1-----1---1-----1-|
G---0---------0-------|---0---------0-------|---0---------0-------|---0---------0-------|
D---------------------|---------------------|---------------------|---------------------|
A---------------------|---------------------|-3---3-----3---3-----|---------------------|
E-1---1-----1---1-----|-0---0-----1---1-----|---------------------|-0---0-----1---1-----|

e-------3---------3---|-------0---------0---|
B---1-----1---1-----1-|---1-----1---1-----1-|
G---0---------0-------|---0---------0-------|
D---------------------|---------------------|
A-3---3-----3---3-----|---------------------|
E---------------------|-0---0-----1---1-----|

BRIDGE
e-------0---------0---|-----------------0---|-------0---------0---|-------3---------0---|
B---1-------1-------1-|---0----0----0-----0-|---1-----1---1-----1-|---1-----1---0-----0-|
G---0-------0---------|---0----0----0-------|---0---------0-------|---0---------0-------|
D---------------------|---------------------|---------------------|---------------------|
A-0-------------------|---------------------|---------------------|-3-------------------|
E---------------------|-3-------------------|-1-------------------|-----------3---------|

e-------0-------------|-0-------------------|
B---3-----3---3---1---|-1-------------------|
G---2---------2-------|-0-------------------|
D---------------------|---------------------|
A---------------------|---------------------|
E-2-------------------|-1-------------------|

FILL
e-------3---------3---|-------0---------0---|-------3---------3---|-------0---------0---|
B---1-----1---1-----1-|---3-----3---1-----1-|---1-----1---1-----1-|---3-----3---1-----1-|
G---0---------0-------|---2---------0-------|---0---------0-------|---2---------0-------|
D---------------------|---------------------|---------------------|---------------------|
A-3---3-----3---3-----|-2---2---------------|-3---3-----3---3-----|-2---2---------------|
E---------------------|-----------1---1-----|---------------------|-----------1---1-----|

VERSE 4
e---------------------|---------------------|---------------------|---------------------|
B---1-----------------|---1-----------------|---1-----------------|---1---------3-------|
G---0-----------------|---0-----------------|---0-----------------|---0---------2-------|
D---------------------|---------------------|---------------------|---------------------|
A-3-------------------|---------------------|-3-------------------|-0---------2---------|
E---------------------|-1-------------------|---------------------|---------------------|

e---------------------|---------------------|-------0-------------|-------0---------0---|
B---1-----------------|---1-----------------|---1--------1--------|---3-----3---3-----3-|
G---0-----------------|---0-----------------|---0--------0--------|---2---------2-------|
D---------------------|---------------------|---------------------|---------------------|
A-3-------------------|---------------------|-3-------------------|-2---2-----2---2-----|
E---------------------|-1-------------------|---------------------|---------------------|

CHORUS
e-------0---------0---|-------3---------3---|-------0---------0---|-------0---------0---|
B---1-----1---1-----1-|---1-----1---1-----1-|---3-----3---3-----3-|---1-----1---0-----0-|
G---0---------0-------|---0---------0-------|---2---------2-------|---0---------0-------|
D---------------------|---------------------|---------------------|---------------------|
A---------------------|-3---3-----3---3-----|-2---2-----2---2-----|-0---0---------------|
E-1---1-----1---1-----|---------------------|---------------------|-----------3---3-----|

e-------0---------0---|-------0---------0---|-------3---------3---|-------0---------0---|
B---1-----1---1-----1-|---1-----1---1-----1-|---1-----1---1-----1-|---1-----1---1-----1-|
G---0---------0-------|---0---------0-------|---0---------0-------|---0---------0-------|
D---------------------|---------------------|---------------------|---------------------|
A---------------------|---------------------|-3---3-----3---3-----|---------------------|
E-1---1-----1---1-----|-0---0-----1---1-----|---------------------|-0---0-----1---1-----|

e-------3---------3---|-------0---------0---|-------3---------3---|-------0---------0---|
B---1-----1---1-----1-|---1-----1---1-----1-|---1-----1---1-----1-|---1-----1---1-----1-|
G---0---------0-------|---0---------0-------|---0---------0-------|---0---------0-------|
D---------------------|---------------------|---------------------|---------------------|
A-3---3-----3---3-----|---------------------|-3---3-----3---3-----|---------------------|
E---------------------|-0---0-----1---1-----|---------------------|-0---0-----1---1-----|

e-0-------------------||
B-1-------------------||
G-0-------------------||
D-2-------------------||
A-3-------------------||
E---------------------||

Tabbed by Jason Nunn
Tap to rate this tab
 
# A B C D E F G H I J K L M N O P Q R S T U V W X Y Z