Paul Dempsey - Have You Fallen Out Of Love tab

This is my first tab so please take it easy on me. This is very accurate but not 100%
This is the acoustic guitar tab. Play along with the song and the strumming pattern 
make sense.

Intro
E------5--5---5----------------|
b------5--5h7-5----------5-----|
g----7----------7------6----6--|  x4
d--0-----------------5---------|
a------------------0-----------|
e------------------------------|

Verse
E--------5--5---5---|--------------|-----5--5---5---|-------7------|
b-o------5--5h7-5---|-------5------|-----5--5h7-5---|-------7------|
g------7----------7-|-----6-----6--|---7----------7-|-------7------|
d----0--------------|---5----------|-0--------------|-----9--------|
a-o-----------------|-0------------|----------------|---9----------|
e-------------------|--------------|----------------|-7-------5-3--|

E-------2-0-------|-------3-2-3--|-------2-0-------|---------------|
b-------0---------|-------3-3-3--|-------0---------|-3--3--3--3--o-|
g-------0---0-----|-------0-0-0--|-------0---0-----|-3--3--3--3----|
d-----2-----------|--------------|-----2-----------|-3--3--3--3----|
a---2-------------|--------------|---2-------------|-1--1--1--1--o-|
e-0---------------|-3---3--------|-0---------------|---------------|

E--------------|--2---2-3-2-0h2---2-----|
b--3--3--3--3--|--3---3-----3-----3-----|
g--3--3--3--3--|--2---2-----2-----2-----|
d--3--3--3--3--|--0---0-----0-----0-----|
a--1--1--1--1--|--------------------0-1-|
e--------------|------------------------|

Chorus
E-----2-----2-------|--2-----2-----|--3--3-2--2h3-2--|--0--0-0-0----------|
b-----3--3--3-------|--2-----2-----|--3--3-3--3-----3|--0--0-3-2-2--2-----|
g-----4--4--4-------|--2-----2-----|--0--0-2--2------|--0--0-----2--2-----|
d-----4--4--4-------|--4--4--4-----|--0--0-0--0------|--2--2-----2--2-----|
a--2-----2--2-------|--4--4--------|--x--x-----------|--2--2-----0--0-0-1-|
e-------------0-1-2-|--2--2----0-2-|--3--3-----------|--0--0--------------|

E-----2-----2------|-----0--0--0--|--2---2-3-2-0h2---2-0----|--------------|
b-----3--3--3------|-----1--1--1--|--3---3-----3-----3---3--|--2---2-3-4-5-|
g-----4--4--4------|-----0--0--0--|--2---2-----2-----2------|--2---2-------|
d-----4--4--4------|--2--2--2--2--|--0---0-----0-----0------|--2---2-------|
a--2-----2--2-0-2--|--3--3--3--3--|-------------------------|--0---0-------|
e------------------|--------------|-------------------------|--------------|

"or have you fallen out of love...?"
E--0----2p0-2----|--0----2p0-2----|-------2p0-2----|-------2p0-2----|
b--0----0-----0--|--0----0-----0--|-----3-3-----3--|-----3-3-----3--|
g--0--0----------|--0--0----------|--0--0----------|--0--0----------|
d--2--2----------|--2--2----------|--0--0----------|--0--0----------|
a--2--2----------|--2--2----------|--x--x----------|--x--x----------|
e--0--0----------|--0--0----------|--3--3----------|--3--3----------|

E--0----2p0-2----|--0----2p0-2----|-------2p0-2----|---------------|---------|
b--0----0-----0--|--0----0-----0--|-----3-3-----3--|--2---2-3-4-5--|--4-5-6--|
g--0--0----------|--0--0----------|--0--0----------|--2---2--------|--2------|
d--2--2----------|--2--2----------|--0--0----------|--2---2--------|--2------|
a--2--2----------|--2--2----------|--x--x----------|--0---0--------|--0------|
e--0--0----------|--0--0----------|--3--3----------|---------------|---------|

Repeat Verse

Repeat Chorus

"or have you fallen out of love...?"
E--0----2p0-2----|--0----2p0-2----|-------2p0-2----|-------2p0-2----|
b--0----0-----0--|--0----0-----0--|-----3-3-----3--|-----3-3-----3--|
g--0--0----------|--0--0----------|--0--0----------|--0--0----------|
d--2--2----------|--2--2----------|--0--0----------|--0--0----------|
a--2--2----------|--2--2----------|--x--x----------|--x--x----------|
e--0--0----------|--0--0----------|--3--3----------|--3--3----------|

Repeat this until end
Tap to rate this tab
 
# A B C D E F G H I J K L M N O P Q R S T U V W X Y Z