Song name
# A B C D E F G H I J K L M N O P Q R S T U V W X Y Z

Paul Dempsey - Ramona Was A Waitress tab

Artist: Paul Dempsey
Song: Ramona Was A Waitress
Album: Everything Is True

Tuning: standard, no capo

Comment: I hope you enjoy playing such a well written and recorded song. Good
luck picking the rhythm verse correctly and singing - very rewarding when you
can do it and belt it out.

As with all of Paul Dempsey's stuff, it's hard to know exactly which voicing
he's actually playing, but I figure this is close enough. I also haven't fully tabbed 
out the rhythm of the bass notes, but it should be easy enough
to figure out what you're supposed to play.


Intro

e -------|
b -------|
g -------|
d -------|
a --7-7--|
E --0-0--|


Verse progression

e -----------------------------------------------------------------|
b -----------------------------------------------------------------|
g ---------6-------------------------------------------------------|
d -------7---7-----------6------------6-----------6-----------x2---|
a --0-0--------0-------7---7--------9---9-------7---7--------------|
E ----------------9-9--------9--0-0-------0-0-0-------0-0----------|

e -----------------------------------------------------------------|
b -----------------------------------------------------------------|
g ---------6-------------------------------------------------------|
d -------7---7-----------6------------6-----------6----------------|
a --0-0--------0-------7---7--------9---9-------7---7--------------|
E ----------------9-9--------9--7-7-------7-0-0-------0-0----------|

e -----------------------------------------------------------------|
b -----------------------------------------------------------------|
g ---------9-------------------------------------------------------|
d -------7---7-----------9------------6-----------6----------------|
a --0-0--------0-------9---9--------7---7-------7---7--------------|
E ----------------7-7--------7--0-0-------0-0-0-------0-0----------|


Chorus
  "    I don't need   these arms  anymore "
e --0---------------0---------0-----------0------------------------|
b --0---------------0---------0-----------0------------------------|
g --x---------------6---------x-----------x------------------------|
d --6---------------7---------6-----------6---x3-------------------|
a --7---------------0---------7-----------7------------------------|
E --0-------------------------9-----------0------------------------|

  ".. at all"
e ----0---------------0--------------------------------------------|
b ----0-----2---------0--------------------------------------------|
g ----x-----2---------x--------------------------------------------|
d ----4-----2---------6--------------------------------------------|
a ----x-----0---------7--------------------------------------------|
E ----2---------------0--------------------------------------------|


Bridge
  " at all,  at all, at all, at all,  at alllll...."
e --0---------0-------0--------0--------0----0-0-0-----------------|
b --0---------0-------0--------0--------0----0-0-0-----------------|
g --x---------x-------x--------x--------x----x-x-x-----------------|
d --6---------6-------9--------11-------6----6-7-6---------x4------|
a --x---------x-------x--------x--------7----7-7-7-----------------|
E --4---------5-------7--------9--------0----0-0-0-----------------|

 " at all...... woooh"
e --0---0---0---0---0---0---0--------------------------------------|
b --0---0---0---0---0---0---0--------------------------------------|
g --x---x---x---x---x---6---x--------------------------------------|
d --6---6---6---6---6---7---6--------------------------------------|
a --7---7---7---7---7---x---7--------------------------------------|
E --0---9---0---9---0---5---0--------------------------------------|

Outro

"Ramona was a waitress"
e -----------------------------------------------------------------|
b -----------------------------------------------------------------|
g ---------6-------------------------------------------------------|
d -------7---7-----------6------------6-----------6-----------x3---|
a --0-0--------0-------7---7--------9---9-------7---7--------------|
E ----------------9-9--------9--0-0-------0-0-0-------0-0----------|

e -----------------------------------------------------------------|
b -----------------------------------------------------------------|
g ---------------------9-------------------------------------------|
d --------9----------6---6----6------------------------------------|
a ------9---9---0-0--------0--7------------------------------------|
E --7-7-------7---------------0------------------------------------|
Tap to rate this tab
# A B C D E F G H I J K L M N O P Q R S T U V W X Y Z