Song name
# A B C D E F G H I J K L M N O P Q R S T U V W X Y Z

Paul Fidalgo - Sing You To Sleep tab

Help us improve GuitareTab! Take a short survey!
Sing You to Sleep
Tabbed by: Entreri
Email: ZCFichter@gmail.com

Tuning: standard
         Bm     A    D               Bm    A   D   
e|-------2-----------3---0H3---------2---------3---3P0-----------------------|
B|-------3------2----2---------------3-----2---2-----------------------------|
G|-------4------2----3---------------4-----2---3-----------------------------|
D|----4--4------2----0------------4--4-----2---0-----------------------------|
A|--2----2---0-----------------2-----2---0-----------------------------------|
E|---------------------------------------------------------------------------|
Into+Verse 1

e|-------2---------3---3--------3--------------------------------------------|
B|-------3-----2---2---3--------3--------------------------------------------|
G|-------4-----2---3---0--------0--------------------------------------------|
D|----4--4-----2---0---2--------0--------------------------------------------|
A|--2----2---0---------3--------2--------------------------------------------|
E|---------------------0--------3--------------------------------------------|
Part

e|------2--------3--0H3---------2---------3--3P0-----------------------------|
B|------3----2---2------3-------3-----2---2------2---------------------------|
G|------4----2---3--------2-----4-----2---3--------3-------------------------|
D|----4-4----2---0------------4-4-----2---0----------------------------------|
A|--2---2--0----------------2---2---0----------------------------------------|
E|---------------------------------------------------------------------------|
Verse 2

Repeat part 2

Do verse 2 again

I don't know the chorus, or the bridge.

I'll add them later


http://www.paulfidalgo.com/
Related for Sing You To Sleep tab