Guitaretab - guitar tabs
Song name
# A B C D E F G H I J K L M N O P Q R S T U V W X Y Z

Paul Fidalgo - Emotional Switch tab

-------------------------------------------------------------------------------
			     Emotional Switch (Intro) -Paul Fidalgo
-------------------------------------------------------------------------------
Tabbed by:Entreri
Email: ZCFichter@gmail.com

Tuning: standard

^=upstrum
[ Tab from: http://www.guitaretab.com/p/paul-fidalgo/92954.html ]
         ^   ^        ^
e|-----------0------------0--------------------------------------------------|
B|-------1P0-0-------1-1--1--------------------------------------------------|
G|----2--2---2-------0-0--0--------------------------------------------------|
D|----2--2---2----2--2-2--0--------------------------------------------------|
A|--0------------3---3-3--2--------------------------------------------------|
E|------------------------3--------------------------------------------------|
Repeat 5x

e|------------0---------------------------------------------------------------|
B|-0----------1---------------------------------------------------------------|
G|-2----------0---------------------------------------------------------------|
D|-2----------0---------------------------------------------------------------|
A|-0----------2---------------------------------------------------------------|
E|------------3---------------------------------------------------------------|

www.paulfidalgo.com

Look under the music tab
Related for Emotional Switch tab
Advertisement will be closed in 10 seconds