Guitaretab - guitar tabs
Song name
# A B C D E F G H I J K L M N O P Q R S T U V W X Y Z

Paul Gilbert - Lessons Fast Licks tab

e]----5----------------5h7p5---5--7h8p7--5----------|
b]-------8p6p5---5h6h8-------8--------------8-------|
g]-------------7------------------------------------|   built speed with it
d]--------------------------------------------------|
a]--------------------------------------------------|
e]--------------------------------------------------|


fig.2 Good to increase strengh in your pinky

e]--------------------------------------|
b]--------------------------------------|
g]----5p4p2---2-------5p4p2---2---------|
d]----------4---5p4p2-------4---5p4p2---|    move this on the neck
a]--------------------------------------|
e]--------------------------------------|


fig.3

A piece of (The green sixties intro) not sure if wrote right

[ Tab from: http://www.guitaretab.com/p/paul-gilbert/115025.html ]
e]----0h2p0---0p7p5p0-----0h5h7t12p7p5---t17p10h12---t17p5h7---t16p4p0h4h7--|
b]----------0---------------------------------------------------------------|
g]--------------------2h4---------------------------------------------------|
d]--------------------------------------------------------------------------|
a]--------------------------------------------------------------------------|
e]--------------------------------------------------------------------------|

e]--12/16\12p7p4-----|
b]-------------------|
g]-------------------|
d]-------------------|
a]-------------------|
e]-------------------|


fig.4

fast lick through the pentatonic scale  e]---|-5-|---|---|-8-|
                                        b]---|-5-|---|---|-8-|
                                        g]---|-5-|---|-7-|---|
                                        d]---|-5-|---|-7-|---|
                                        a]---|-5-|---|-7-|---|
                                        e]---|-5-|---|---|-8-|


so here it is!

e]------------------------------------------5---8---|
b]---------------------------------5---8-5h8-8p5----|
g]------------------------5---7-5h7-7p5-------------|
d]---------------5---7-5h7-7p5----------------------|
a]------5---7-5h7-7p5-------------------------------|
e]---5h8-8p5----------------------------------------|

this is my first tab that i make so please rate and leave comment that could help me 
better tabs.Ho and go see PG video!!!
Related for Lessons Fast Licks tab
Advertisement will be closed in 10 seconds