Song name
# A B C D E F G H I J K L M N O P Q R S T U V W X Y Z

Paul Gilbert - Bliss tab

Help us improve GuitareTab! Take a short survey!
-------------------------------------------------------------------------------
			     Bliss - Paul Gilbert
-------------------------------------------------------------------------------
Tabbed by: BlisteringDDj
Email: ddj1991@gmail.com

Tuning: DAFCGD

Rythm/Lead Guitar:

                                     S  S S S S S S S S  S S S S S S S  
D||-------|-------|-------|-------|------------------------------------|
A||-------|-------|-------|-------|------------------------------------|
F||-------|-------|-------|-------|-------------4----------------------|
C||-------|-------|-------|-------|--4h-6---4---------4h-6---4---3-----|
G||-------|-------|-------|-------|-------4---4---4-4------4---4---4-4-|
D||-------|-------|-------|-------|------------------------------------|


                     ^                                     
  S  S S S S E  S    W                   W                 
------------------|-------------------|-------------------|
------------------|-------------------|-------------------|
-------------4--x-|--9----------------|--L----------------|
--4h-6---4------x-|--9----------------|--L----------------|
-------4---4----x-|--7----------------|--L----------------|
----------------x-|-------------------|-------------------|


                                                          ^                 
  S  S S S S S S S S  S S S S S S S    S  S S S S E  S    W                 
------------------------------------|------------------|-------------------|
------------------------------------|------------------|-------------------|
-------------4----------------------|-------------4--x-|--9----------------|
--4h-6---4---------4h-6---4---3-----|--4h-6---4------x-|--9----------------|
-------4---4---4-4------4---4---4-4-|-------4---4----x-|--7----------------|
------------------------------------|----------------x-|-------------------|


           ^ v  ^ ^ v                                         
  H        S E  S S E.     S  S S S S S S S S  S S S S S S S  
------------------------|------------------------------------|
------------------------|------------------------------------|
--L--------9-9--9-9-9---|-------------4----------------------|
--L--------9-9--9-9-9---|--4h-6---4---------4h-6---4---3-----|
--L--------7-7--7-7-7---|-------4---4---4-4------4---4---4-4-|
------------------------|------------------------------------|


                     ^                            ^ v   ^  ^  v    
  S  S S S S E  S    W                   H        S E   S  S  E.   
------------------|-------------------|---------------------------|
------------------|-------------------|---------------------------|
-------------4--x-|--9----------------|--L--------9-9--11-11-11---|
--4h-6---4------x-|--9----------------|--L--------9-9--11-11-11---|
-------4---4----x-|--7----------------|--L--------7-7---9--9--9---|
----------------x-|-------------------|---------------------------|


                                                          ^                 
  S  S S S S S S S S  S S S S S S S    S  S S S S E  S    W                 
------------------------------------|------------------|-------------------|
------------------------------------|------------------|-------------------|
-------------4----------------------|-------------4--x-|--9----------------|
--4h-6---4---------4h-6---4---3-----|--4h-6---4------x-|--9----------------|
-------4---4---4-4------4---4---4-4-|-------4---4----x-|--7----------------|
------------------------------------|----------------x-|-------------------|


            ^  v   ^  ^  v                                         
  H         S  E   S  S  E.     S  S S S S S S S S  S S S S S S S  
-----------------------------|------------------------------------|
-----------12-12--12-12-12---|------------------------------------|
--L--------11-11--11-11-11---|-------------4----------------------|
--L--------11-11--11-11-11---|--4h-6---4---------4h-6---4---3-----|
--L--------------------------|-------4---4---4-4------4---4---4-4-|
-----------------------------|------------------------------------|


                  ^           ^                 
  S  S S S S E  S H           W                 
---------------------------|-------------------|
---------------------------|-------------------|
-------------4--x-9--------|--L----------------|
--4h-6---4------x-9--------|--L----------------|
-------4---4----x-7--------|--L----------------|
----------------x----------|-------------------|


   ^  v   ^  ^  v   ^  ^  v   ^  ^  v   ^  
   S  E   S  S  E   S  S  E   S  S  E   S  
------------------------------------------|
--12-12--12-12-12--12-12-12--12-12-12--12-|
--11-11--11-11-11--11-11-11--11-11-11--11-|
--11-11--11-11-11--11-11-11--11-11-11--11-|
------------------------------------------|
------------------------------------------|


   ^  v   ^  ^  v   ^  ^  v   ^  ^  v   ^  
   S  E   S  S  E   S  S  E   S  S  E   S  
------------------------------------------|
--14-14--14-14-14--14-14-14--14-14-14--14-|
--11-11--11-11-11--11-11-11--11-11-11--11-|
--11-11--11-11-11--11-11-11--11-11-11--11-|
------------------------------------------|
------------------------------------------|


   ^  v   ^  ^  v   ^  ^  v   ^  ^  v   ^  
   S  E   S  S  E   S  S  E   S  S  E   S  
--12-12--12-12-12--12-12-12--12-12-12--12-|
--14-14--14-14-14--14-14-14--14-14-14--14-|
--11-11--11-11-11--11-11-11--11-11-11--11-|
--11-11--11-11-11--11-11-11--11-11-11--11-|
------------------------------------------|
------------------------------------------|


   ^  v   ^  ^  v   ^  ^  v   ^                                    
   S  E   S  S  E   S  S  E   S Q        Q    E.  S S S S S E  E   
--16-16--16-16-16--16-16-16--16-------|---------------------------|
--14-14--14-14-14--14-14-14--14-------|---------------------------|
--11-11--11-11-11--11-11-11--11-------|---------------------------|
--11-11--11-11-11--11-11-11--11-------|------------------------2--|
--------------------------------9\----|--4----4---2-4-2-----------|
--------------------------------------|-----------------4-2-0-----|


  E  E  S S S S E.  S Q        Q    E.  S S S S S E  E   
----------------------------|---------------------------|
----------------------------|---------------------------|
----------------------------|---------------------------|
--L--4--4-2-----------------|------------------------2--|
------------4-2-4---x-9\----|--4----4---2-4-2-----------|
----------------------------|-----------------4-2-0-----|


  E  E  S S S S E  S  S Q       Q    E.  S S S S S E  E   
------------------------0----|---------------------------|
------------------------0----|---------------------------|
-----------------------------|---------------------------|
--L--4--4-2------------------|------------------------2--|
------------4-2-4--4s-7------|--4----4---2-4-2-----------|
-----------------------------|-----------------4-2-0-----|


  E  E  S S S S E.  S  Q        E   E  E  S S  E  E  S S  E   
-----------------------------|-------------------------------|
-----------------------------|-----11--9------11--9------11--|
-----------------------------|-----11--9--x-x-11--9--x-x-11--|
--L--4--4-2------------------|-----11--9--x-x-11--9--x-x-11--|
------------4-2-4---0s-9\----|--x----------------------------|
-----------------------------|-------------------------------|


                                            PM                 
  E  S S  S  S  E   E     E  E   E       E  E  H        Q      
------------------------------------||------------------------|
--9---------------------------------||------------------------|
--9--x-x----------------------------||*--9-----9--------L\----|
--9--x-x-11p-9-11---L--------9--11--||*--9-----9--------L\----|
-----------------------9g11---------||------------------------|
------------------------------------||------9-----------------|


                       PM PM           PM                      
  E   E  E.   S E   E  E  E      Q     E  E  S S E  S S  S  S  
-----------------------------|--------------------------------|
-----------------------------|--------------------------------|
-----------------------------|--11~-------9--x-x-9--x-x-------|
---------9------9--11--------|--11--------9--x-x-9--x-x-11p-9-|
-----11------11--------------|--------------------------------|
-----------------------9--9--|---------9----------------------|


                                    PM                 
   H          E     E  E   E     E  E  H        Q      
------------------------------|-----------------------|
------------------------------|-----------------------|
------------------------------|--9-----9--------L\----|
--11~---------L--------9--11--|--9-----9--------L\----|
-----------------9g11---------|-----------------------|
------------------------------|-----9-----------------|


                       PM PM          PM                    
  E   E  E.   S E   E  E  E      Q    E  E  E  E  E   S  S  
-----------------------------|-----------------------------|
-----------------------------|-----------------------------|
-----------------------------|--11-------9--L--9--x--------|
---------9------9--11--------|--11-------9--L--9--x--11p-9-|
-----11------11--------------|-----------------------------|
-----------------------9--9--|--------9--------------------|


                                      PM    PM     PM          PM    PM     PM  
   H          E     E  E   E     Q    E  E  E   E  E  E     E  E  E  E   E  E   
------------------------------|--------------------------|---------------------|
------------------------------|--------------------------|---------------------|
------------------------------|--8--------------------8--|--L------------------|
--11~---------L--------9--11--|--9-------9-----11-----9--|--L--9--------11---
-----------------9g11---------|----------9-----11--------|--------9-----11-----|
------------------------------|-------9-----9------9-----|-----9-----9------9--|


       PM    PM     PM                      \0           PM    PM     PM     
  Q    E  E  E   E  E   E     E    E  Q     Q       Q    E  E  E   E  E  E   
---------------------------|---------------------|--------------------------|
---------------------------|---------------------|--------------------------|
--8--------------------11--|--L-------9----------|--8--------------------8--|
--9-------9-----11-----11--|--L-------9----11----|--9-------9-----11-----9--|
----------9-----11---------|-----7g9-------------|----------9-----11--------|
-------9-----9------9------|---------------------|-------9-----9------9-----|


     PM    PM                 PM    PM    PM          PM ^    ^    ^     
  E  E  E  E   E  E      Q    E  E  E  E  E  E     E  E  Q    Q    Q     
----------------------|-------------------------|--------0----0----0----|
----------------------|-------------------------|--------0----0----0----|
--L-------------------|-------------------------|-----------------------|
--L-----9-----11--L\--|--6-------6-----6-----9--|--L--------------------|
--------9-----11--L\--|--6-------6-----6-----9--|--L--------------------|
-----9-----9----------|--4----4--4--4--4--4--7--|--L--0-----------------|


  Q    E.  S S S S S E  E     E  E  S S S S E.  S Q      
---------------------------|----------------------------|
---------------------------|----------------------------|
---------------------------|----------------------------|
------------------------2--|--L--4--4-2-----------------|
--4----4---2-4-2-----------|------------4-2-4---x-9\----|
-----------------4-2-0-----|----------------------------|


  Q    E.  S S S S S E  E     E  E  S S S S E  S  S Q     
---------------------------|------------------------0----|
---------------------------|------------------------0----|
---------------------------|-----------------------------|
------------------------2--|--L--4--4-2------------------|
--4----4---2-4-2-----------|------------4-2-4--4s-7------|
-----------------4-2-0-----|-----------------------------|


  Q    E.  S S S S S E  E     E  E  S S S S E.  S  Q      
---------------------------|-----------------------------|
---------------------------|-----------------------------|
---------------------------|-----------------------------|
------------------------2--|--L--4--4-2------------------|
--4----4---2-4-2-----------|------------4-2-4---0s-9\----|
-----------------4-2-0-----|-----------------------------|


  E   E  E  S S  E  E  S S  E     E  S S  S  S  E   E     E  E   E     
-------------------------------|-------------------------------------||
-----11--9------11--9------11--|--9----------------------------------||
-----11--9--x-x-11--9--x-x-11--|--9--x-x----------------------------*||
-----11--9--x-x-11--9--x-x-11--|--9--x-x-11p-9-11---L--------9--11--*||
--x----------------------------|-----------------------9g11----------||
-------------------------------|-------------------------------------||


  E  E  S  S E  S   S S   S E  E      Q    E.  S S S S S E  E   
-----------------------------------|---------------------------|
-----------------------------------|---------------------------|
----------------------------9--L\--|---------------------------|
--L--4--4p-2----------9h-11--------|------------------------2--|
-------------4--9h-11--------------|--4----4---2-4-2-----------|
-----------------------------------|-----------------4-2-0-----|


  E  E  S S S S E.  S  Q        E   E  E  S S  E  E  S S  E   
-----------------------------|-------------------------------|
-----------------------------|-----11--9------11--9------11--|
-----------------------------|-----11--9--x-x-11--9--x-x-11--|
--L--4--4-2------------------|-----11--9--x-x-11--9--x-x-11--|
------------4-2-4---0s-9\----|--x----------------------------|
-----------------------------|-------------------------------|


  E  S S  S  S  E.  S  Q.                                               
-------------------------------|---------|---------|---------|---------|
--9----------------------------|---------|---------|---------|---------|
--9--x-x-----------------------|---------|---------|---------|---------|
--9--x-x-11p-9-11--------------|---------|---------|---------|---------|
--------------------0s-9\------|---------|---------|---------|---------|
-------------------------------|---------|---------|---------|---------|


---------|---------|---------|---------|---------|---------|---------|---------|
---------|---------|---------|---------|---------|---------|---------|---------|
---------|---------|---------|---------|---------|---------|---------|---------|
---------|---------|---------|---------|---------|---------|---------|---------|
---------|---------|---------|---------|---------|---------|---------|---------|
---------|---------|---------|---------|---------|---------|---------|---------|


---------|---------|---------|---------|---------|---------|---------|---------|
---------|---------|---------|---------|---------|---------|---------|---------|
---------|---------|---------|---------|---------|---------|---------|---------|
---------|---------|---------|---------|---------|---------|---------|---------|
---------|---------|---------|---------|---------|---------|---------|---------|
---------|---------|---------|---------|---------|---------|---------|---------|


  ^       ^                       ^ v ^         
  Q    E  E  H           H        S S E  Q      
----------0--L--------|--L--------0-0-0--------|
----------0--L--------|--L--------0-0-0--------|
--9-------9--L--------|--L--------9-9-9--------|
--9-------9--L--------|--L--------9-9-9--------|
--7-------9--L--------|--L--------9-9-9--x\----|
----------------------|------------------------|


  S S S S S S  S S S S S S S S  S S    S S S S S S  S S      W                  
------------------------------------|-------------------|----------------------|
------------------------------------|-------------------|--7g9~----------------|
------------------------------------|------4-----6p4----|----------------------|
-----------------------4-----6p4----|--4-6---6-4------6-|----------------------|
------4-----6p4---4-6---6-4------6--|-------------------|----------------------|
--4-7---7-4------7------------------|-------------------|----------------------|


  W                  
-------------------||
--L----------------||
-------------------||
-------------------||
-------------------||
-------------------||


Solo:

  TP                  TP                   TP                
  W                   W                    W                 
-------------------|-------------------|--------------------|
-------------------|-------------------|--------------------|
--9----------------|--9----------------|---9----------------|
-------------------|-------------------|--11----------------|
-------------------|-------------------|--------------------|
-------------------|-------------------|--------------------|


   TP  TP         W                                           
                                                      |--3-|  
   E   Q.         Q.     S  S    H          E  E   E  S  S S  
------------------------------|-----------------------9-11-9-|
---------------------------12-|--Lb~--------L----------------|
---9--12------12g13------x----|------------------------------|
--11---L-----------------x----|----------------x\--x---------|
-------------------------x----|------------------------------|
------------------------------|------------------------------|


   |--3-|                |--3-|                |--6--|  |--6-|  |---6-
   S S  S  T   T   T  T  S S  S  T   T   T  T  S S   S  S  S S  S  S  
-----9-12-11h-12p-11p-9----9------------------------------------------
--12--------------------12---12-11h-12p-11p-9----9h-11p-9----9-12-11h-
----------------------------------------------12----------12----------
----------------------------------------------------------------------
----------------------------------------------------------------------
----------------------------------------------------------------------


  |--6--|   |--6--| |--3--|               |--6-| |--6--|              
  S   S S   S  S  S S  S  S   T  T  T  T  S S  S S  S  S   T  T  T T  
--------9h-12p-9----9-12-14p-12p-9-------12-9----9-11-12p-11p-9-------
--9h-12----------12----------------14-12------11----------------12-9-1
----------------------------------------------------------------------
----------------------------------------------------------------------
----------------------------------------------------------------------
----------------------------------------------------------------------


              |-----7-----|   |------7-----|  7  7   7 7 ---- |---6--|
   S S  S  S  S S   S  S  S   S   S S   S  S  S  S   S S  S   S   S  S
----------------------------------------------------------------------
-----9-11-12-11-9h-11p-9-------------------------------9--------------
--12---------------------11h-12p-11-9h-11p-9p-8-11h-12---13p-12p-11-12
----------------------------------------------------------------------
----------------------------------------------------------------------
----------------------------------------------------------------------


   |--6-|  |--6-|  |--6-|  |--6--|                   |--6-|  |---6--| 
   S  S S  S S  S  S S  S  S  S  S E   T   T   T  T  S S  S  S   S  S 
---------------------9----------11-9--11h-12p-11p-9----9-11-12p-11p-9-
--12-11-9----9-11-12---12-11-12---------------------12----------------
----------12----------------------------------------------------------
----------------------------------------------------------------------
----------------------------------------------------------------------
----------------------------------------------------------------------


   |---6---|  |--6--|                                          |---3--
   S   S   S  S  S  S  T  T  T  T   T   T  T  T  T  T   T   T  S   S  
--14p-12p-11----11-12-14-12-11-16p-14p-12----12-14-16p-14p-12-20p-18p-
-------------14---------------------------14--------------------------
----------------------------------------------------------------------
----------------------------------------------------------------------
----------------------------------------------------------------------
----------------------------------------------------------------------


                 |---3---|  |---6--|  |--6--|  |------7-----|   |-----
   T   T   T  T  S   S   S  S  S   S  S  S  S  S  S  S  S   S   S   S 
---------------------------16-----------------16-19-16-18h-19p-18p-16-
--19p-17p-16----16h-17h-19----19p-17-16-17-19-------------------------
-------------18-------------------------------------------------------
----------------------------------------------------------------------
----------------------------------------------------------------------
----------------------------------------------------------------------


   |--6--|  |---6--|  |---6--|   |---6---|  |---6--| |--6--|   |---6--
   S  S  S  S  S   S  S  S   S   S   S   S  S   S  S S  S  S   S   S  
--16-12----14-12S-11-14-11h-12h-14p-12p-10-13p-10----9----------------
--------14----------------------------------------12---12-11h-12p-11p-
----------------------------------------------------------------------
----------------------------------------------------------------------
----------------------------------------------------------------------
----------------------------------------------------------------------


  H          Q.       S S  
--------------------------|
--Lb~---------------------|
--------------------------|
-------------x\---------9-|
---------------------11---|
--------------------------|


   T   T  S  S  S   T   T   T   T   T   T  T  T   T  T  T T  T   T   T
---------------11h-12h-16h-19p-16p-12p-11S-9-12p-11p-9----9-----------
------------12-----------------------------------------12---11h-12p-11
---------13-----------------------------------------------------------
--13S-14--------------------------------------------------------------
----------------------------------------------------------------------
----------------------------------------------------------------------


  |-6-|   |--6--| |---6---|  |---6---|   |------5-----| |-----5-----| 
  E   S   S  S  S S   S   S  S   S   S   S  S  S   S  S S  S   S  S S 
--9-------------------------------------------------------------------
----------------------------11h-12p-11h-11p-9-----------9-----------9-
-----12p-11p-9----9h-11h-12-------------------12p-11p-9---12p-11p-9---
---------------11-----------------------------------------------------
----------------------------------------------------------------------
----------------------------------------------------------------------


   |-----5-----|   |--6-|  |---6--| |-----5-----|  |-----5-----|   
   S   S  S S  S   S  S S  S   S  S S  S   S  S S  S   S  S S  S   
------------------------------------------------------------------|
------------9-----------9-----------9-----------9-----------9-----|
--12p-11p-9---12p-11p-9---12p-11p-9---12p-11p-9---12p-11p-9---12p-|
------------------------------------------------------------------|
------------------------------------------------------------------|
------------------------------------------------------------------|


   |--6-|  |---6--| |---6--|  |--6-|   |--6-|  |---6--|  |---6--|  |--
   S  S S  S   S  S S  S   S  S S  S   S  S S  S   S  S  S   S  S  S S
--------------------9-----------------------9-----------12p-11p-9----9
--------9-----------------------9---------------------------------12--
--11p-9---12p-11p-9---12p-11p-9---12p-11p-9---12p-11p-9---------------
----------------------------------------------------------------------
----------------------------------------------------------------------
----------------------------------------------------------------------


   |---6---|  |--6-|  |--3-|                          
   S   S   S  S  S S  S S  S  S  S  S  S E      Q     
-----------------------------------------------------|
--11h-12p-11p-9----9-11-9----------------------------|
----------------12--------12-11-12-11-11-9--10g11----|
-----------------------------------------------------|
-----------------------------------------------------|
-----------------------------------------------------|


  S S     E  E  S S  E  E  S   S  T  T  T  T  
---------------------------------------------|
--------------------11--9--------------------|
--x-x-10g11--9--x-x-11--9--9h-11-------------|
--x-x-----------x-x--------------------------|
---------------------------------13-14-15-16-|
---------------------------------------------|


   7  7  7  7  7  7  7                                        
   S  S  S  S  S  S  S  S   S  S  S     E   Q.                
---------------------------------------19---L------|---------|
-----------------------14h-17-18-19-18g19b--L------|---------|
--------------13-15-17-----------------------------|---------|
--14-14-15-17--------------------------------------|---------|
---------------------------------------------------|---------|
---------------------------------------------------|---------|


             S  S  S  S  S  S   S  S  S  S  S  S  S  S   S  S  
---------|----------------------------------------------------|
---------|----------------------------------------------------|
---------|---------------------------------11-------13p-11----|
---------|--------11-------13p-11----11-13----13-11--------13-|
---------|--11-14----14-11--------14--------------------------|
---------|----------------------------------------------------|


   S  S  S  S  S  S   S  S        W                  
---------------------------|--14g16~----------------|
--------12-------14p-12----|------------------------|
--11-13----13-11--------13-|------------------------|
---------------------------|------------------------|
---------------------------|------------------------|
---------------------------|------------------------|


  H        H          
--L-----------------||
--------------------||
--------------------||
--------------------||
--------------------||
--------------------||


Duration Legend
---------------
W - whole
H - half
Q - quarter
E - 8th
S - 16th
T - 32nd
X - 64th
. - note dotted
|-n-|  - n-tuplets


Tablature Legend
----------------
L - tied note
x - dead note
g - grace note
(n) - ghost note
> - accentuded note
NH - natural harmonic
AH - artificial harmonic
TH - tapped harmonic
SH - semi harmonic
PH - pitch harmonic
h - hammer on
p - pull off
b - bend
br - bendRelease
pb - preBend
pbr - preBendRelease
brb - bendReleaseBend
\n/ - tremolo bar dip
\n - tremolo bar dive
-/n - tremolo bar Release up
/n\ - tremolo bar inverted dip
/n - tremolo bar return
-\n - tremolo bar Release down
S - shift slide
s - legato slide
/ -  slide into from below or out of upwards
\ -  slide into from above or out of downwards
~ - vibrato
W - wide vibrato
tr - trill
TP - tremolo picking
T - tapping
S - slap
P - pop
< - fade in
^ - brush up
v - brush down

Any questions? contact me on UG or send and email to ddj1991@gmail.com
Related for Bliss tab