Song name
# A B C D E F G H I J K L M N O P Q R S T U V W X Y Z

Paul Gilbert - Scarified tab

 this song is scarified by paul gilbert and this solo really rocks..
very awsome!! so i made this tabs by listening over and over to the song 
until i got the right tune. my tabs are 100% accurate try it and you'll see!


Intro:    (repeat intro twice)
e|-----------------------------|----------------------|
B|-----------------------------|----------------------|
G|-----------------------------|-------------------5~-|
D|-----------------------------|---------------6-8----|
A|-------------------------3---|---------4-6-8--------|
E|-1-1-1-1-1-1-1-1-1-3-4-6---1-|-1-4-6-8--------------|

e|-----------------------------|---------------------------|
B|-----------------------------|---------------------------|
G|-----------------------------|---6-5---------------------|
D|-----------------------------|-------8-6-5---------------|
A|-------------------------3---|-------------8-6-4---------|
E|-1-1-1-1-1-1-1-1-1-3-4-6---1-|-1-----------------8-6-4-3-|

e|-----------------------------|----------------------|
B|-----------------------------|----------------------|
G|-----------------------------|-------------------5~-|
D|-----------------------------|---------------6-8----|
A|-------------------------3---|---------4-6-8--------|
E|-1-1-1-1-1-1-1-1-1-3-4-6---1-|-1-4-6-8--------------|

e|-----------------------------|------------------------|
B|-----------------------------|------------------------|
G|-----------------------------|---------------------13-| back to intro
D|-----------------------------|------------------10-13-|
A|-------------------------3---|---------10-11-13-------|
E|-1-1-1-1-1-1-1-1-1-3-4-6---1-|-1\11-13----------------|

   |---string skip----|      P=pulloff   h=hammer  b=bend
e|-20p16----------------17h20p17----------------17-------------------------|
B|-------18p16----16h18-------------------------------------16h20p16-------|
G|-------------17----------------20p17----17h20----------------------------|
D|-------------------------------------19-------------17h20----------20p17-|
A|-------------------------------------------------18----------------------|
E|-------------------------------------------------------------------------|

e|-18p15----------------15-------|
B|-------------------------------|
G|-------18p15----15h18----20b~~-|
D|-------------17----------------|
A|-------------------------------|
E|-------------------------------|

e|-------------------9------13p9----9------|
B|-13-9----9-13-9-13---13-9------13---13p9-|
G|------10---------------------------------|
D|-----------------------------------------|
A|-----------------------------------------|
E|-----------------------------------------|

e|----------------------14-------18p14----14-------|
B|-18-14----14-18-14-18----18-14-------18----18p14-|
G|-------15----------------------------------------|
D|-------------------------------------------------|
A|-------------------------------------------------|
E|-------------------------------------------------|

e|----------------------11-------15p11----11--------|
B|--------------------------------------------------|
G|-15-12----12-15-12-15----15p12-------15----154p12-|
D|-------13-----------------------------------------|
A|--------------------------------------------------|
E|--------------------------------------------------|

e|-----------------16-20-p16-20-------16-------|
B|---------------------------------------------|
G|-20-17----17-20-----15p12-----17h20----20p17-|
D|-------18------------------------------------|
A|---------------------------------------------|
E|---------------------------------------------|

e|----------------------------------------|----------------- i'm still
B|----------------14-18p14----14h18p14----|----------------- working on the
G|-------------------------15----------15-|-15-12----12-15- other half of
D|-15-11----11-15-------------------------|-------14------- this solo.so dnt
A|-------13-------------------------------|------------ worry i'll post it
E|----------------------------------------|---------- when my tabs r sure 
                                                             perfect..

for comments email me at night3y3@yahoo.com or visit my friendster..


Tap to rate this tab
# A B C D E F G H I J K L M N O P Q R S T U V W X Y Z