Song name
# A B C D E F G H I J K L M N O P Q R S T U V W X Y Z

Paul Gilbert - Bro tab

Song: B.R.O
ARtist: Paul Gilbert
Tabbed by: Guns&rosesman49
------------------------------|
Legend:                       |
h: hammer-on                  |
p: pull-off                   |
/:slide up to "x"             |
\: slide down to "x"          |
b: bend to "x"                |
X: mute with fretboard hand   |
v: vibrato                    |
(x): optional note/effect     |
------------------------------|


Guitar 1: Paul Gilbert, Standard tuning (E A D G B e)
Guitar 2: "untitled", Standard tuning (E A D G B e) 

Guitar 2 only has a few small parts.



This is inhumanly fast. Good luck.
  
                                      Speedpicking part
Gtr. I
E|---------------------------------|----------------5-----------------| 
B|--5h6p5h6p5h6p5h6p5h6p5h6p5--8-6-|--8-6-5---5-6-8---8-6-8-6-5---5-6-| 
G|---------------------------------|--------7-------------------7-----| 
D|---------------------------------|----------------------------------| 
A|---------------------------------|----------------------------------| 
E|---------------------------------|----------------------------------| 
 
         
Gtr. I                                                                
E|----5-6-5-6-5---5-8-6-8-6-5---6-5---|----------------------------------| 
B|--8-----------8-------------8-----8-|--6-8-6-5-6-5-----5-------5-6-5---| 
G|------------------------------------|--------------7-5---7-5-7-------7-| 
D|------------------------------------|----------------------------------| 
A|------------------------------------|----------------------------------| 
E|------------------------------------|----------------------------------| 
 
    
Gtr. I                                                        
E|----------------------------------|------------------------| 
B|----5-----------------------------|------------------------| 
G|--5---7-5-7-5---------------------|------------------------| 
D|--------------8-7-8-7-5-7-5---5---|------------------------| 
A|----------------------------8---8-|--7-5-7-8---5-----------| 
E|----------------------------------|----------8-------------| 
 
   
Gtr. I                                                
E|--------------------------------------------------| 
B|--------------------------------------------------| 
G|--------------------------------------------------| 
D|-----------------------------10----10-------------| 
A|-----------10-12-13-12-10-13----13----13-12-10-12-| 
E|--10-12-13----------------------------------------| 
 
 
Gtr. I                                               
E|--------------------------------------------------| 
B|--------------------------------------------------| 
G|--------------------------10----------12-10-12-10-| 
D|-----10-12-10-------10-14----14-12-14-------------| 
A|--13----------12-13-------------------------------| 
E|--------------------------------------------------| 
 
 
Gtr. I                                                  
E|--------------------------------------------------| 
B|-----------------------------------------------11-| 
G|-----------10-12-14-12-10-12-10-------10-12-14----| 
D|--14-12-14----------------------12-14-------------| 
A|--------------------------------------------------| 
E|--------------------------------------------------| 
 
         
Gtr. I                                         
E|--------------------------------------------------| 
B|--13-11-13-11-------------------------------------| 
G|--------------14-12-14-12-10-12-10----------------| 
D|-----------------------------------14-12-14-12-10-| 
A|--------------------------------------------------| 
E|--------------------------------------------------| 
 


Gtr. I                                                   
E|--------------------------------------------------| 
B|-----------10-------------------------------------| 
G|--------10----10-12-14-12-10----10-12-14-10-14-12-| 
D|--12-14----------------------14-------------------| 
A|--------------------------------------------------| 
E|--------------------------------------------------| 
 
            
Gtr. I                                       
E|-----------10-------10----------------10-12-13-15-| 
B|-----10-11----11-13----13-11-10-11-13-------------| 
G|--10----------------------------------------------| 
D|--------------------------------------------------| 
A|--------------------------------------------------| 
E|--------------------------------------------------| 
 
         
 Gtr. I                                          
E|--13-12----12-13-15-17-15-13-15-13----------13-15-| 
B|--------15-------------------------17-15-17-------| 
G|--------------------------------------------------| 
D|--------------------------------------------------| 
A|--------------------------------------------------| 
E|--------------------------------------------------| 
 

Gtr. I                                                 
E|--17-18-20-18-20-18-17-15-17-15-13-15-13-12----12-| 
B|--------------------------------------------15----| 
G|--------------------------------------------------| 
D|--------------------------------------------------| 
A|--------------------------------------------------| 
E|--------------------------------------------------| 
 

Gtr. I                                   
E|------------------------------------|-----------------------------------------| 
B|--15-13----13-15--------------------|-----------------------------------------| 
G|--------14--------------------------|-----------------------------------------| 
D|------------------------------------|-------------------7--------10-8----7-10-| 
A|-----------------------------8-7----|--7-8-10-8----7-10---10-8-7------10------| 
E|----------------------6-8-10-----10-|-----------10----------------------------| 
 
                    
Gtr. I                                                          
E|---------------------------------------|---------------------------8-10-8b10-| 
B|--------------------------------------|-------------------8-10-11-----------| 
G|--7--------10-9-7----7-9-10---10-9-7-9-|--7---------7-9-10-------------------| 
D|----10-8-7--------10-------------------|----10-8-10--------------------------| 
A|---------------------------------------|-------------------------------------| 
E|---------------------------------------|-------------------------------------| 
               
Gtr. I
For this part, hit all the strings hard while muting them, then slide out from 5th fret.
                      
E|--X----X----X----5\0----|--5--------5--------5--------5--------| 
B|--X----X----X----5\0----|-----6--------6--------6--------6-----| 
G|--X----X----X----5\0----|--------7--------7--------7--------7--| 
D|--X----X----X----5\0----|--------------------------------------| 
A|--X----X----X----5\0----|--------------------------------------| 
E|--X----X----X----5\0----|--------------------------------------| 
 
Gtr. II

This is all i could make out from this part.

E|-------------------|
B|-------------------|
G|---5(v)------------|
D|-------------------|      X 3
A|---------5---------|
E|-------------------|


Gtr. I
E|--6--------6--------6--------6--------|--3--------3--------6--3-----5--3-----| 
B|-----8--------8--------8--------8-----|-----5--------5-----------5--------6--| 
G|--------9--------9--------9--------9--|--------6--------6--------------------| 
D|--------------------------------------|--------------------------------------| 
A|--------------------------------------|--------------------------------------| 
E|--------------------------------------|--------------------------------------| 
 
Gtr. I                                               
E|--------5-----5--10------10--13--10--13--19--| 
B|-----6-----6---------10----------------------| 
G|--7------------------------------------------| 
D|---------------------------------------------| 
A|---------------------------------------------| 
E|---------------------------------------------| 
 
Gtr. I                                                    
E|--------------------------------------------------| 
B|--18--17--15--------------------------15----------| 
G|--------------17--16--14--13--------------16--17--| 
D|------------------------------16--14--------------| 
A|--------------------------------------------------| 
E|--------------------------------------------------| 
 
Gtr. I                                    
E|----------17----------------------| 
B|--------------16--15--13----------| 
G|--------------------------15--14--| 
D|----------------------------------| 
A|----------------------------------| 
E|----------------------------------| 
 
Gtr. I                                                  
E|------------------------------------------15----| 
B|------------------13----------15----------------| 
G|--12------------------14--15------15--12--------| 
D|------16--14--12--------------------------------| 
A|------------------------------------------------| 
E|------------------------------------------------| 
 
Gtr. I                                                
E|----------------------------------------------| 
B|--15--13------------------13----------18------| 
G|----------15--14--12--14------14--------------| 
D|----------------------------------15----------| 
A|----------------------------------------------| 
E|----------------------------------------------| 
 
Gtr. I                                                   
E|--------------------------------------------------| 
B|--13----------------------------------------------| 
G|------15--14--12------12--15--14--12--------------| 
D|------------------15------------------15--14--15--| 
A|--------------------------------------------------| 
E|--------------------------------------------------| 
 
Gtr. I                                                    
E|------------------------------12----------12------| 
B|------------------15--------------14----------14--| 
G|--------------14------12--14----------14----------| 
D|--14--12--15--------------------------------------| 
A|--------------------------------------------------| 
E|--------------------------------------------------| 
 
Gtr. I                                                    
E|------12----------------------12----------12------| 
B|----------14----------------------14----------14--| 
G|--14----------14--15--14--12----------12----------| 
D|--------------------------------------------------| 
A|--------------------------------------------------| 
E|--------------------------------------------------| 
 
Gtr. I                                                    
E|------12------------------10----------10----------| 
B|----------14------------------11----------11------| 
G|--12----------12--14--10----------10----------10--| 
D|--------------------------------------------------| 
A|--------------------------------------------------| 
E|--------------------------------------------------| 
 
Gtr. I                                                    
E|--10----------10----------------------------------| 
B|------11----------11------13--10------13--10------| 
G|----------10----------10----------11----------11--| 
D|--------------------------------------------------| 
A|--------------------------------------------------| 
E|--------------------------------------------------| 
 
Gtr. I                                                   
E|--------------------------------------------------| 
B|--13--10------13--10--11----------------------11--| 
G|----------11--------------12--11--12------12------| 
D|--------------------------------------12----------| 
A|--------------------------------------------------| 
E|--------------------------------------------------| 
 
Gtr. I                                                   
E|--------------------------------------------------| 
B|----------11--------------------------11----------| 
G|--12----------12----------12--11--12------12------| 
D|------12----------12--13----------------------13--| 
A|--------------------------------------------------| 
E|--------------------------------------------------| 
 
Gtr. I                                                       
E|-----------------------------------------------------| 
B|--11----------11-------------11----------11----------| 
G|------12----------12-------------12----------12------| 
D|----------13----------13--11---------11----------11--| 
A|-----------------------------------------------------| 
E|-----------------------------------------------------| 
 
Gtr. I                                                    
E|--------------------------------------------------| 
B|--11----------------------------------------------| 
G|------12------14--12--10--14--10------14--10------| 
D|----------11----------------------12----------12--| 
A|--------------------------------------------------| 
E|--------------------------------------------------| 
 
Gtr. I                                                    
E|--------------------------------------------------| 
B|--------------------------------------------------| 
G|--14--10------------------12----------12----------| 
D|----------12--11--12--14------14----------14------| 
A|----------------------------------13----------13--| 
E|--------------------------------------------------| 
 
Gtr. I                                                  
E|------------------------------------------------| 
B|------------------------------------------------| 
G|--12--------------12----------------------------| 
D|------14--------------15--12--------------------| 
A|----------16--12--------------15-13-12----------| 
E|---------------------------------------15-13-12-| 
 
Gtr. I                                         
E|---------------------------------------| 
B|---------------------------------------| 
G|---------------------------------------| 
D|---------------------------------------| 
A|-----12------5-------------5-12-8----8-| 
E|--13----13-5---8-6-5-3-1-0--------10---| 
 
Gtr. I                                                    
E|--------------------------------10-13-17-13----13-| 
B|--------------------10-------10-------------15----| 
G|-----------------10-------10----------------------| 
D|-----12-------12-------12-------------------------| 
A|--12-------12-------------------------------------| 
E|--------13----------------------------------------| 
 
Gtr. I                                         
E|-----------------------------15-17------| 
B|--15-12-15----------------17------------| 
G|-----------13-16-14-13-14---------------| 
D|----------------------------------------| 
A|----------------------------------------| 
E|----------------------------------------| 
 
Gtr. I                                              
E|--17------------------------------------|--------------------------------| 
B|------15--17--15--15h17p15h17p15h17p15--|--15----15--13------15----------| 
G|----------------------------------------|----------------14------15--12--| 
D|----------------------------------------|--------------------------------| 
A|----------------------------------------|--------------------------------| 
E|----------------------------------------|--------------------------------| 
 
Gtr. I                                                                   
E|----------------------------------|--------------------------------| 
B|--13------------------------------|--------------------------------| 
G|------14--11--15--12------14------|--------------------------------| 
D|----------------------14------16--|------17--14------16------------| 
A|----------------------------------|--17----------16--17----17--16--| 
E|----------------------------------|--------------------------------| 
 
Gtr. I                         
E|----------------------|
B|----------------------| 
G|------------19--------| 
D|----------------------|
A|--17------------------| 
E|----------------------|

Gtr. II

play this note and dump the whammy bar all the way down.

E|---------|
B|---------|
G|---------|
D|---------|
A|--5------|
E|---------|


That's it! good luck memorizing it. =D

Paul Gilbert owns!
Tap to rate this tab
# A B C D E F G H I J K L M N O P Q R S T U V W X Y Z